  0
SECTION
  2
HEADER
  9
$ACADVER
  1
AC1018
  9
$ACADMAINTVER
 70
     0
  9
$DWGCODEPAGE
  3
ANSI_1252
  9
$INSBASE
 10
0.0
 20
0.0
 30
0.0
  9
$EXTMIN
 10
5459.154360192923
 20
-361.6920024782626
 30
0.0
  9
$EXTMAX
 10
6730.351160060287
 20
561.2792178877091
 30
0.0
  9
$LIMMIN
 10
0.0
 20
0.0
  9
$LIMMAX
 10
420.0
 20
297.0
  9
$ORTHOMODE
 70
     0
  9
$REGENMODE
 70
     1
  9
$FILLMODE
 70
     1
  9
$QTEXTMODE
 70
     0
  9
$MIRRTEXT
 70
     0
  9
$LTSCALE
 40
1.0
  9
$ATTMODE
 70
     1
  9
$TEXTSIZE
 40
2.5
  9
$TRACEWID
 40
1.0
  9
$TEXTSTYLE
  7
Standard
  9
$CLAYER
  8
Layer1
  9
$CELTYPE
  6
ByLayer
  9
$CECOLOR
 62
   256
  9
$CELTSCALE
 40
1.0
  9
$DISPSILH
 70
     0
  9
$DIMSCALE
 40
1.0
  9
$DIMASZ
 40
2.5
  9
$DIMEXO
 40
0.625
  9
$DIMDLI
 40
3.75
  9
$DIMRND
 40
0.0
  9
$DIMDLE
 40
0.0
  9
$DIMEXE
 40
1.25
  9
$DIMTP
 40
0.0
  9
$DIMTM
 40
0.0
  9
$DIMTXT
 40
2.5
  9
$DIMCEN
 40
2.5
  9
$DIMTSZ
 40
0.0
  9
$DIMTOL
 70
     0
  9
$DIMLIM
 70
     0
  9
$DIMTIH
 70
     0
  9
$DIMTOH
 70
     0
  9
$DIMSE1
 70
     0
  9
$DIMSE2
 70
     0
  9
$DIMTAD
 70
     1
  9
$DIMZIN
 70
     8
  9
$DIMBLK
  1

  9
$DIMASO
 70
     1
  9
$DIMSHO
 70
     1
  9
$DIMPOST
  1

  9
$DIMAPOST
  1

  9
$DIMALT
 70
     0
  9
$DIMALTD
 70
     3
  9
$DIMALTF
 40
0.03937007874016
  9
$DIMLFAC
 40
1.0
  9
$DIMTOFL
 70
     1
  9
$DIMTVP
 40
0.0
  9
$DIMTIX
 70
     0
  9
$DIMSOXD
 70
     0
  9
$DIMSAH
 70
     0
  9
$DIMBLK1
  1

  9
$DIMBLK2
  1

  9
$DIMSTYLE
  2
ISO-25
  9
$DIMCLRD
 70
     0
  9
$DIMCLRE
 70
     0
  9
$DIMCLRT
 70
     0
  9
$DIMTFAC
 40
1.0
  9
$DIMGAP
 40
0.625
  9
$DIMJUST
 70
     0
  9
$DIMSD1
 70
     0
  9
$DIMSD2
 70
     0
  9
$DIMTOLJ
 70
     0
  9
$DIMTZIN
 70
     8
  9
$DIMALTZ
 70
     0
  9
$DIMALTTZ
 70
     0
  9
$DIMUPT
 70
     0
  9
$DIMDEC
 70
     6
  9
$DIMTDEC
 70
     6
  9
$DIMALTU
 70
     2
  9
$DIMALTTD
 70
     3
  9
$DIMTXSTY
  7
Standard
  9
$DIMAUNIT
 70
     0
  9
$DIMADEC
 70
     5
  9
$DIMALTRND
 40
0.0
  9
$DIMAZIN
 70
     0
  9
$DIMDSEP
 70
    44
  9
$DIMATFIT
 70
     3
  9
$DIMFRAC
 70
     0
  9
$DIMLDRBLK
  1

  9
$DIMLUNIT
 70
     2
  9
$DIMLWD
 70
    -2
  9
$DIMLWE
 70
    -2
  9
$DIMTMOVE
 70
     0
  9
$LUNITS
 70
     2
  9
$LUPREC
 70
     4
  9
$SKETCHINC
 40
1.0
  9
$FILLETRAD
 40
45.0
  9
$AUNITS
 70
     0
  9
$AUPREC
 70
     0
  9
$MENU
  1
.
  9
$ELEVATION
 40
0.0
  9
$PELEVATION
 40
0.0
  9
$THICKNESS
 40
0.0
  9
$LIMCHECK
 70
     0
  9
$CHAMFERA
 40
0.0
  9
$CHAMFERB
 40
0.0
  9
$CHAMFERC
 40
0.0
  9
$CHAMFERD
 40
0.0
  9
$SKPOLY
 70
     0
  9
$TDCREATE
 40
2454299.931068611
  9
$TDUCREATE
 40
2454299.847735278
  9
$TDUPDATE
 40
2454714.488423287
  9
$TDUUPDATE
 40
2454714.405089954
  9
$TDINDWG
 40
3.4641882523
  9
$TDUSRTIMER
 40
3.4641880903
  9
$USRTIMER
 70
     1
  9
$ANGBASE
 50
0.0
  9
$ANGDIR
 70
     0
  9
$PDMODE
 70
     0
  9
$PDSIZE
 40
0.0
  9
$PLINEWID
 40
0.0
  9
$SPLFRAME
 70
     0
  9
$SPLINETYPE
 70
     6
  9
$SPLINESEGS
 70
     8
  9
$HANDSEED
  5
4FF2
  9
$SURFTAB1
 70
     6
  9
$SURFTAB2
 70
     6
  9
$SURFTYPE
 70
     6
  9
$SURFU
 70
     6
  9
$SURFV
 70
     6
  9
$UCSBASE
  2

  9
$UCSNAME
  2

  9
$UCSORG
 10
0.0
 20
0.0
 30
0.0
  9
$UCSXDIR
 10
1.0
 20
0.0
 30
0.0
  9
$UCSYDIR
 10
0.0
 20
1.0
 30
0.0
  9
$UCSORTHOREF
  2

  9
$UCSORTHOVIEW
 70
     0
  9
$UCSORGTOP
 10
0.0
 20
0.0
 30
0.0
  9
$UCSORGBOTTOM
 10
0.0
 20
0.0
 30
0.0
  9
$UCSORGLEFT
 10
0.0
 20
0.0
 30
0.0
  9
$UCSORGRIGHT
 10
0.0
 20
0.0
 30
0.0
  9
$UCSORGFRONT
 10
0.0
 20
0.0
 30
0.0
  9
$UCSORGBACK
 10
0.0
 20
0.0
 30
0.0
  9
$PUCSBASE
  2

  9
$PUCSNAME
  2

  9
$PUCSORG
 10
0.0
 20
0.0
 30
0.0
  9
$PUCSXDIR
 10
1.0
 20
0.0
 30
0.0
  9
$PUCSYDIR
 10
0.0
 20
1.0
 30
0.0
  9
$PUCSORTHOREF
  2

  9
$PUCSORTHOVIEW
 70
     0
  9
$PUCSORGTOP
 10
0.0
 20
0.0
 30
0.0
  9
$PUCSORGBOTTOM
 10
0.0
 20
0.0
 30
0.0
  9
$PUCSORGLEFT
 10
0.0
 20
0.0
 30
0.0
  9
$PUCSORGRIGHT
 10
0.0
 20
0.0
 30
0.0
  9
$PUCSORGFRONT
 10
0.0
 20
0.0
 30
0.0
  9
$PUCSORGBACK
 10
0.0
 20
0.0
 30
0.0
  9
$USERI1
 70
     0
  9
$USERI2
 70
     0
  9
$USERI3
 70
     0
  9
$USERI4
 70
     0
  9
$USERI5
 70
     0
  9
$USERR1
 40
0.0
  9
$USERR2
 40
0.0
  9
$USERR3
 40
0.0
  9
$USERR4
 40
0.0
  9
$USERR5
 40
0.0
  9
$WORLDVIEW
 70
     1
  9
$SHADEDGE
 70
     3
  9
$SHADEDIF
 70
    70
  9
$TILEMODE
 70
     0
  9
$MAXACTVP
 70
    64
  9
$PINSBASE
 10
0.0
 20
0.0
 30
0.0
  9
$PLIMCHECK
 70
     0
  9
$PEXTMIN
 10
1.636086210675557
 20
1.221584661769313
 30
0.0
  9
$PEXTMAX
 10
286.1625683863781
 20
195.1415763366682
 30
0.0
  9
$PLIMMIN
 10
-5.027069091796875
 20
-6.720416545867919
  9
$PLIMMAX
 10
291.89892578125
 20
203.2529110908508
  9
$UNITMODE
 70
     0
  9
$VISRETAIN
 70
     1
  9
$PLINEGEN
 70
     0
  9
$PSLTSCALE
 70
     1
  9
$TREEDEPTH
 70
  3020
  9
$CMLSTYLE
  2
Standard
  9
$CMLJUST
 70
     0
  9
$CMLSCALE
 40
20.0
  9
$PROXYGRAPHICS
 70
     1
  9
$MEASUREMENT
 70
     1
  9
$CELWEIGHT
370
    -1
  9
$ENDCAPS
280
     0
  9
$JOINSTYLE
280
     0
  9
$LWDISPLAY
290
     0
  9
$INSUNITS
 70
     4
  9
$HYPERLINKBASE
  1

  9
$STYLESHEET
  1

  9
$XEDIT
290
     1
  9
$CEPSNTYPE
380
     0
  9
$PSTYLEMODE
290
     1
  9
$FINGERPRINTGUID
  2
{FDEAD578-A652-11D2-9A35-0060089B3A3F}
  9
$VERSIONGUID
  2
{6D3D6E0B-4D69-47A7-BB43-AAFD11F05BC2}
  9
$EXTNAMES
290
     1
  9
$PSVPSCALE
 40
0.0
  9
$OLESTARTUP
290
     0
  9
$SORTENTS
280
   126
  9
$INDEXCTL
280
     0
  9
$HIDETEXT
280
     1
  9
$XCLIPFRAME
290
     0
  9
$HALOGAP
280
     0
  9
$OBSCOLOR
 70
   257
  9
$OBSLTYPE
280
     0
  9
$INTERSECTIONDISPLAY
280
     0
  9
$INTERSECTIONCOLOR
 70
   257
  9
$DIMASSOC
280
     2
  9
$PROJECTNAME
  1

  0
ENDSEC
  0
SECTION
  2
CLASSES
  0
CLASS
  1
ACDBDICTIONARYWDFLT
  2
AcDbDictionaryWithDefault
  3
ObjectDBX Classes
 90
        0
 91
        1
280
     0
281
     0
  0
CLASS
  1
DICTIONARYVAR
  2
AcDbDictionaryVar
  3
ObjectDBX Classes
 90
        0
 91
        2
280
     0
281
     0
  0
CLASS
  1
DIMASSOC
  2
AcDbDimAssoc
  3
"AcDbDimAssoc|Product Desc:     AcDim ARX App For Dimension|Company:          Autodesk, Inc.|WEB Address:      www.autodesk.com"
 90
        0
 91
        0
280
     0
281
     0
  0
ENDSEC
  0
SECTION
  2
TABLES
  0
TABLE
  2
VPORT
  5
8
330
0
100
AcDbSymbolTable
 70
     2
  0
VPORT
  5
4FDD
330
8
100
AcDbSymbolTableRecord
100
AcDbViewportTableRecord
  2
*Active
 70
     0
 10
0.0
 20
0.0
 11
1.0
 21
1.0
 12
7704.508233641451
 22
872.3178536404667
 13
0.0
 23
0.0
 14
10.0
 24
10.0
 15
10.0
 25
10.0
 16
0.0
 26
0.0
 36
1.0
 17
0.0
 27
0.0
 37
0.0
 40
16754.16014230689
 41
2.062418725617685
 42
50.0
 43
0.0
 44
0.0
 50
0.0
 51
0.0
 71
     0
 72
  1000
 73
     1
 74
     3
 75
     0
 76
     0
 77
     0
 78
     0
281
     0
 65
     1
110
0.0
120
0.0
130
0.0
111
1.0
121
0.0
131
0.0
112
0.0
122
1.0
132
0.0
 79
     0
146
0.0
  0
ENDTAB
  0
TABLE
  2
LTYPE
  5
5
330
0
100
AcDbSymbolTable
 70
     2
  0
LTYPE
  5
14
330
5
100
AcDbSymbolTableRecord
100
AcDbLinetypeTableRecord
  2
ByBlock
 70
     0
  3

 72
    65
 73
     0
 40
0.0
  0
LTYPE
  5
15
330
5
100
AcDbSymbolTableRecord
100
AcDbLinetypeTableRecord
  2
ByLayer
 70
     0
  3

 72
    65
 73
     0
 40
0.0
  0
LTYPE
  5
16
330
5
100
AcDbSymbolTableRecord
100
AcDbLinetypeTableRecord
  2
Continuous
 70
     0
  3
Solid line
 72
    65
 73
     0
 40
0.0
  0
LTYPE
  5
4A55
330
5
100
AcDbSymbolTableRecord
100
AcDbLinetypeTableRecord
  2
AI9-LType2
 70
     0
  3
Illustrator Dash Style No.2
 72
    65
 73
     4
 40
8.999961
 49
4.99999
 74
     0
 49
-0.9999839999999997
 74
     0
 49
2.000002999999999
 74
     0
 49
-0.9999839999999997
 74
     0
  0
ENDTAB
  0
TABLE
  2
LAYER
  5
2
330
0
100
AcDbSymbolTable
 70
    26
  0
LAYER
  5
10
330
2
100
AcDbSymbolTableRecord
100
AcDbLayerTableRecord
  2
0
 70
     0
 62
     1
  6
Continuous
370
    -3
390
F
  0
LAYER
  5
85
330
2
100
AcDbSymbolTableRecord
100
AcDbLayerTableRecord
  2
Vlak6
 70
     0
 62
   192
  6
Continuous
370
    25
390
F
1001
RAK
1000
{LAGENTABEL1
1070
     0
1070
     1
1000
Continuous
1070
     1
1071
       50
1071
        1
1005
F
1000
LAGENTABEL1}
1000
{LAYER_STATE1
1070
     0
1070
     1
1000
Continuous
1071
       50
1071
        1
1005
F
1000
LAYER_STATE1}
  0
LAYER
  5
86
330
2
100
AcDbSymbolTableRecord
100
AcDbLayerTableRecord
  2
Vlak1
 70
     0
 62
     4
  6
Continuous
370
    18
390
F
1001
RAK
1000
{LAGENTABEL1
1070
     0
1070
     4
1000
Continuous
1071
       18
1071
        1
1005
F
1000
LAGENTABEL1}
1000
{LAYER_STATE1
1070
     0
1070
     4
1000
Continuous
1071
       18
1071
        1
1005
F
1000
LAYER_STATE1}
  0
LAYER
  5
87
330
2
100
AcDbSymbolTableRecord
100
AcDbLayerTableRecord
  2
Omtrek kite
 70
     0
 62
     5
  6
Continuous
370
    18
390
F
1001
RAK
1000
{LAGENTABEL1
1070
     0
1070
     5
1000
Continuous
1071
       18
1071
        1
1005
F
1000
LAGENTABEL1}
1000
{LAYER_STATE1
1070
     0
1070
     5
1000
Continuous
1071
       18
1071
        1
1005
F
1000
LAYER_STATE1}
  0
LAYER
  5
88
330
2
100
AcDbSymbolTableRecord
100
AcDbLayerTableRecord
  2
Vlak4
 70
     0
 62
   181
  6
Continuous
370
    25
390
F
1001
RAK
1000
{LAGENTABEL1
1070
     0
1070
   181
1000
Continuous
1071
       25
1071
        1
1005
F
1000
LAGENTABEL1}
1000
{LAYER_STATE1
1070
     0
1070
   181
1000
Continuous
1071
       25
1071
        1
1005
F
1000
LAYER_STATE1}
  0
LAYER
  5
89
330
2
100
AcDbSymbolTableRecord
100
AcDbLayerTableRecord
  2
Vlak2
 70
     0
 62
    40
  6
Continuous
370
    -3
390
F
  0
LAYER
  5
8A
330
2
100
AcDbSymbolTableRecord
100
AcDbLayerTableRecord
  2
Vlak3
 70
     0
 62
    10
  6
Continuous
370
    -3
390
F
  0
LAYER
  5
8B
330
2
100
AcDbSymbolTableRecord
100
AcDbLayerTableRecord
  2
Vlak5
 70
     0
 62
   140
  6
Continuous
370
    25
390
F
  0
LAYER
  5
8C
330
2
100
AcDbSymbolTableRecord
100
AcDbLayerTableRecord
  2
Zoom Dacron
 70
     0
 62
    60
  6
Continuous
370
    -3
390
F
  0
LAYER
  5
100
330
2
100
AcDbSymbolTableRecord
100
AcDbLayerTableRecord
  2
Vlak7
 70
     0
 62
     2
  6
Continuous
370
    -3
390
F
  0
LAYER
  5
10B
330
2
100
AcDbSymbolTableRecord
100
AcDbLayerTableRecord
  2
Defpoints
 70
     0
 62
     7
  6
Continuous
290
     0
370
    -3
390
F
  0
LAYER
  5
1E8
330
2
100
AcDbSymbolTableRecord
100
AcDbLayerTableRecord
  2
speider
 70
     0
 62
    92
  6
Continuous
370
    -3
390
F
  0
LAYER
  5
25F
330
2
100
AcDbSymbolTableRecord
100
AcDbLayerTableRecord
  2
Vieuwports
 70
     0
 62
  -242
  6
Continuous
290
     0
370
    18
390
F
  0
LAYER
  5
5D0
330
2
100
AcDbSymbolTableRecord
100
AcDbLayerTableRecord
  2
Layer1
 70
     0
 62
    60
  6
Continuous
370
    -3
390
F
  0
LAYER
  5
77B
330
2
100
AcDbSymbolTableRecord
100
AcDbLayerTableRecord
  2
Afdruklaag
 70
     0
 62
     7
  6
Continuous
370
    -3
390
F
  0
LAYER
  5
882
330
2
100
AcDbSymbolTableRecord
100
AcDbLayerTableRecord
  2
Afmetingen
 70
     0
 62
    31
  6
Continuous
370
    -3
390
F
  0
LAYER
  5
11DB
330
2
100
AcDbSymbolTableRecord
100
AcDbLayerTableRecord
  2
Papierlayout
 70
     0
 62
     7
  6
Continuous
370
    -3
390
F
  0
LAYER
  5
1352
330
2
100
AcDbSymbolTableRecord
100
AcDbLayerTableRecord
  2
Layer2
 70
     0
 62
    50
  6
Continuous
370
    -3
390
F
  0
LAYER
  5
2088
330
2
100
AcDbSymbolTableRecord
100
AcDbLayerTableRecord
  2
Layer3
 70
     0
 62
    30
  6
Continuous
370
    -3
390
F
  0
LAYER
  5
3130
330
2
100
AcDbSymbolTableRecord
100
AcDbLayerTableRecord
  2
Vlak8
 70
     0
 62
   220
  6
Continuous
370
    -3
390
F
  0
LAYER
  5
3131
330
2
100
AcDbSymbolTableRecord
100
AcDbLayerTableRecord
  2
Vlak9
 70
     0
 62
   103
  6
Continuous
370
    -3
390
F
  0
LAYER
  5
3132
330
2
100
AcDbSymbolTableRecord
100
AcDbLayerTableRecord
  2
Vlak10
 70
     0
 62
   214
  6
Continuous
370
    -3
390
F
  0
LAYER
  5
3573
330
2
100
AcDbSymbolTableRecord
100
AcDbLayerTableRecord
  2
Layer4
 70
     0
 62
     7
  6
Continuous
370
    -3
390
F
  0
LAYER
  5
4697
330
2
100
AcDbSymbolTableRecord
100
AcDbLayerTableRecord
  2
positie stand-offs UL
 70
     0
 62
   220
  6
Continuous
370
    -3
390
F
  0
LAYER
  5
46E6
330
2
100
AcDbSymbolTableRecord
100
AcDbLayerTableRecord
  2
positie stand-offs STD
 70
     0
 62
   132
  6
Continuous
370
    -3
390
F
  0
LAYER
  5
49BC
330
2
100
AcDbSymbolTableRecord
100
AcDbLayerTableRecord
  2
1
 70
     0
 62
     5
  6
Continuous
370
    -3
390
F
  0
ENDTAB
  0
TABLE
  2
STYLE
  5
3
330
0
100
AcDbSymbolTable
 70
     3
  0
STYLE
  5
11
330
3
100
AcDbSymbolTableRecord
100
AcDbTextStyleTableRecord
  2
Standard
 70
     0
 40
0.0
 41
1.0
 50
0.0
 71
     0
 42
2.5
  3
txt
  4

  0
STYLE
  5
8D
330
3
100
AcDbSymbolTableRecord
100
AcDbTextStyleTableRecord
  2
TT Arial
 70
     0
 40
0.0
 41
1.0
 50
0.0
 71
     0
 42
2.5
  3
arial.ttf
  4

1001
ACAD
1000
Arial
1071
       34
  0
STYLE
  5
2089
330
3
100
AcDbSymbolTableRecord
100
AcDbTextStyleTableRecord
  2
STD
 70
     0
 40
0.0
 41
1.0
 50
0.0
 71
     0
 42
0.0
  3
txt
  4

  0
ENDTAB
  0
TABLE
  2
VIEW
  5
6
330
0
100
AcDbSymbolTable
 70
     0
  0
ENDTAB
  0
TABLE
  2
UCS
  5
7
330
0
100
AcDbSymbolTable
 70
     0
  0
ENDTAB
  0
TABLE
  2
APPID
  5
9
330
0
100
AcDbSymbolTable
 70
     3
  0
APPID
  5
12
330
9
100
AcDbSymbolTableRecord
100
AcDbRegAppTableRecord
  2
ACAD
 70
     0
  0
APPID
  5
8F
330
9
100
AcDbSymbolTableRecord
100
AcDbRegAppTableRecord
  2
RAK
 70
     0
  0
APPID
  5
2584
330
9
100
AcDbSymbolTableRecord
100
AcDbRegAppTableRecord
  2
DCO15
 70
     0
  0
ENDTAB
  0
TABLE
  2
DIMSTYLE
  5
A
330
0
100
AcDbSymbolTable
 70
     3
100
AcDbDimStyleTable
 71
     2
340
27
340
8E
  0
DIMSTYLE
105
27
330
A
100
AcDbSymbolTableRecord
100
AcDbDimStyleTableRecord
  2
ISO-25
 70
     0
 41
2.5
 42
0.625
 43
3.75
 44
1.25
 73
     0
 74
     0
 77
     1
 78
     8
140
2.5
141
2.5
143
0.03937007874016
147
0.625
171
     3
172
     1
179
     5
271
     6
272
     6
274
     3
278
    44
283
     0
284
     8
340
11
  0
DIMSTYLE
105
8E
330
A
100
AcDbSymbolTableRecord
100
AcDbDimStyleTableRecord
  2
HOUTPE1-1
 70
     0
 40
0.0
 41
2.0
 42
1.0
 43
6.0
 44
1.0
 46
1.0
 73
     0
 74
     0
 77
     1
 78
     9
 79
     2
140
3.0
141
2.5
143
0.0393701
147
1.0
171
     3
172
     1
176
     5
177
     5
178
     5
271
     0
272
     0
274
     3
278
    44
283
     0
284
     8
340
8D
342
81
371
    18
372
    18
  0
DIMSTYLE
105
208A
330
A
100
AcDbSymbolTableRecord
100
AcDbDimStyleTableRecord
  2
Standard
 70
     0
340
11
  0
ENDTAB
  0
TABLE
  2
BLOCK_RECORD
  5
1
330
0
100
AcDbSymbolTable
 70
    70
  0
BLOCK_RECORD
  5
1F
330
1
100
AcDbSymbolTableRecord
100
AcDbBlockTableRecord
  2
*Model_Space
340
22
  0
BLOCK_RECORD
  5
676
330
1
100
AcDbSymbolTableRecord
100
AcDbBlockTableRecord
  2
*Paper_Space
340
67B
  0
BLOCK_RECORD
  5
81
330
1
100
AcDbSymbolTableRecord
100
AcDbBlockTableRecord
  2
_ArchTick
340
0
  0
BLOCK_RECORD
  5
E8
330
1
100
AcDbSymbolTableRecord
100
AcDbBlockTableRecord
  2
A$C6DC52714
340
0
  0
BLOCK_RECORD
  5
1C5
330
1
100
AcDbSymbolTableRecord
100
AcDbBlockTableRecord
  2
A$C23891203
340
0
  0
BLOCK_RECORD
  5
2CC
330
1
100
AcDbSymbolTableRecord
100
AcDbBlockTableRecord
  2
A$C45AD5557
340
0
  0
BLOCK_RECORD
  5
6AC
330
1
100
AcDbSymbolTableRecord
100
AcDbBlockTableRecord
  2
*Paper_Space4
340
6B1
  0
BLOCK_RECORD
  5
656
330
1
100
AcDbSymbolTableRecord
100
AcDbBlockTableRecord
  2
*Paper_Space5
340
65B
  0
BLOCK_RECORD
  5
696
330
1
100
AcDbSymbolTableRecord
100
AcDbBlockTableRecord
  2
*Paper_Space6
340
69B
  0
BLOCK_RECORD
  5
4895
330
1
100
AcDbSymbolTableRecord
100
AcDbBlockTableRecord
  2
*Paper_Space7
340
489A
  0
BLOCK_RECORD
  5
F54
330
1
100
AcDbSymbolTableRecord
100
AcDbBlockTableRecord
  2
*Paper_Space8
340
F59
  0
BLOCK_RECORD
  5
6C1
330
1
100
AcDbSymbolTableRecord
100
AcDbBlockTableRecord
  2
*Paper_Space9
340
6C6
  0
BLOCK_RECORD
  5
6A1
330
1
100
AcDbSymbolTableRecord
100
AcDbBlockTableRecord
  2
*Paper_Space10
340
6A6
  0
BLOCK_RECORD
  5
661
330
1
100
AcDbSymbolTableRecord
100
AcDbBlockTableRecord
  2
*Paper_Space11
340
666
  0
BLOCK_RECORD
  5
682
330
1
100
AcDbSymbolTableRecord
100
AcDbBlockTableRecord
  2
*Paper_Space12
340
687
  0
BLOCK_RECORD
  5
648
330
1
100
AcDbSymbolTableRecord
100
AcDbBlockTableRecord
  2
*Paper_Space13
340
64D
  0
BLOCK_RECORD
  5
82D
330
1
100
AcDbSymbolTableRecord
100
AcDbBlockTableRecord
  2
A$C68E3032D
340
0
  0
BLOCK_RECORD
  5
734
330
1
100
AcDbSymbolTableRecord
100
AcDbBlockTableRecord
  2
*Paper_Space15
340
739
  0
BLOCK_RECORD
  5
66C
330
1
100
AcDbSymbolTableRecord
100
AcDbBlockTableRecord
  2
*Paper_Space16
340
671
  0
BLOCK_RECORD
  5
48A7
330
1
100
AcDbSymbolTableRecord
100
AcDbBlockTableRecord
  2
*Paper_Space17
340
48AC
  0
BLOCK_RECORD
  5
6B6
330
1
100
AcDbSymbolTableRecord
100
AcDbBlockTableRecord
  2
*Paper_Space18
340
6BB
  0
BLOCK_RECORD
  5
1132
330
1
100
AcDbSymbolTableRecord
100
AcDbBlockTableRecord
  2
A$C7BC96941
340
0
  0
BLOCK_RECORD
  5
1137
330
1
100
AcDbSymbolTableRecord
100
AcDbBlockTableRecord
  2
A$C51F15CC7
340
0
  0
BLOCK_RECORD
  5
1277
330
1
100
AcDbSymbolTableRecord
100
AcDbBlockTableRecord
  2
A$C4EE01F58
340
0
  0
BLOCK_RECORD
  5
12A0
330
1
100
AcDbSymbolTableRecord
100
AcDbBlockTableRecord
  2
A$C33977617
340
0
  0
BLOCK_RECORD
  5
12AB
330
1
100
AcDbSymbolTableRecord
100
AcDbBlockTableRecord
  2
A$C40503E2B
340
0
  0
BLOCK_RECORD
  5
12BE
330
1
100
AcDbSymbolTableRecord
100
AcDbBlockTableRecord
  2
A$C47CD2A7A
340
0
102
{BLKREFS
331
199A
102
}
  0
BLOCK_RECORD
  5
1749
330
1
100
AcDbSymbolTableRecord
100
AcDbBlockTableRecord
  2
A$C349E6DD0
340
0
  0
BLOCK_RECORD
  5
178F
330
1
100
AcDbSymbolTableRecord
100
AcDbBlockTableRecord
  2
A$C52A52698
340
0
  0
BLOCK_RECORD
  5
1980
330
1
100
AcDbSymbolTableRecord
100
AcDbBlockTableRecord
  2
A$C288618C9
340
0
  0
BLOCK_RECORD
  5
19CC
330
1
100
AcDbSymbolTableRecord
100
AcDbBlockTableRecord
  2
A$C569B1741
340
0
  0
BLOCK_RECORD
  5
19D2
330
1
100
AcDbSymbolTableRecord
100
AcDbBlockTableRecord
  2
A$C7EAE5BF8
340
0
  0
BLOCK_RECORD
  5
19F1
330
1
100
AcDbSymbolTableRecord
100
AcDbBlockTableRecord
  2
A$C5E135D46
340
0
  0
BLOCK_RECORD
  5
1E1B
330
1
100
AcDbSymbolTableRecord
100
AcDbBlockTableRecord
  2
A$C4FFE7409
340
0
  0
BLOCK_RECORD
  5
F36
330
1
100
AcDbSymbolTableRecord
100
AcDbBlockTableRecord
  2
*Paper_Space32
340
F3B
  0
BLOCK_RECORD
  5
2A90
330
1
100
AcDbSymbolTableRecord
100
AcDbBlockTableRecord
  2
A$C63556863
340
0
  0
BLOCK_RECORD
  5
2E45
330
1
100
AcDbSymbolTableRecord
100
AcDbBlockTableRecord
  2
A$C59272694
340
0
  0
BLOCK_RECORD
  5
3017
330
1
100
AcDbSymbolTableRecord
100
AcDbBlockTableRecord
  2
A$C5B3A3F0F
340
0
  0
BLOCK_RECORD
  5
30E4
330
1
100
AcDbSymbolTableRecord
100
AcDbBlockTableRecord
  2
A$C5E992616
340
0
  0
BLOCK_RECORD
  5
3101
330
1
100
AcDbSymbolTableRecord
100
AcDbBlockTableRecord
  2
A$C67E5556B
340
0
  0
BLOCK_RECORD
  5
311C
330
1
100
AcDbSymbolTableRecord
100
AcDbBlockTableRecord
  2
A$C3FAC71DD
340
0
  0
BLOCK_RECORD
  5
317F
330
1
100
AcDbSymbolTableRecord
100
AcDbBlockTableRecord
  2
A$C06E93DA4
340
0
  0
BLOCK_RECORD
  5
327F
330
1
100
AcDbSymbolTableRecord
100
AcDbBlockTableRecord
  2
A$C6BC67F49
340
0
  0
BLOCK_RECORD
  5
3359
330
1
100
AcDbSymbolTableRecord
100
AcDbBlockTableRecord
  2
A$C438A02A6
340
0
  0
BLOCK_RECORD
  5
43AD
330
1
100
AcDbSymbolTableRecord
100
AcDbBlockTableRecord
  2
A$C53E06F80
340
0
  0
BLOCK_RECORD
  5
458C
330
1
100
AcDbSymbolTableRecord
100
AcDbBlockTableRecord
  2
A$C00E51877
340
0
  0
BLOCK_RECORD
  5
45A7
330
1
100
AcDbSymbolTableRecord
100
AcDbBlockTableRecord
  2
A$C2B7F721B
340
0
  0
BLOCK_RECORD
  5
468D
330
1
100
AcDbSymbolTableRecord
100
AcDbBlockTableRecord
  2
A$C458E7194
340
0
  0
BLOCK_RECORD
  5
480F
330
1
100
AcDbSymbolTableRecord
100
AcDbBlockTableRecord
  2
A$C11585D55
340
0
  0
BLOCK_RECORD
  5
304D
330
1
100
AcDbSymbolTableRecord
100
AcDbBlockTableRecord
  2
*Paper_Space47
340
3052
  0
BLOCK_RECORD
  5
48B9
330
1
100
AcDbSymbolTableRecord
100
AcDbBlockTableRecord
  2
*Paper_Space48
340
48BE
  0
BLOCK_RECORD
  5
4F00
330
1
100
AcDbSymbolTableRecord
100
AcDbBlockTableRecord
  2
*Paper_Space49
340
4F05
  0
BLOCK_RECORD
  5
F4A
330
1
100
AcDbSymbolTableRecord
100
AcDbBlockTableRecord
  2
*Paper_Space50
340
F4F
  0
BLOCK_RECORD
  5
48AD
330
1
100
AcDbSymbolTableRecord
100
AcDbBlockTableRecord
  2
*Paper_Space51
340
48B2
  0
BLOCK_RECORD
  5
489B
330
1
100
AcDbSymbolTableRecord
100
AcDbBlockTableRecord
  2
*Paper_Space52
340
48A0
  0
BLOCK_RECORD
  5
68C
330
1
100
AcDbSymbolTableRecord
100
AcDbBlockTableRecord
  2
*Paper_Space53
340
691
  0
BLOCK_RECORD
  5
48A1
330
1
100
AcDbSymbolTableRecord
100
AcDbBlockTableRecord
  2
*Paper_Space54
340
48A6
  0
BLOCK_RECORD
  5
48E5
330
1
100
AcDbSymbolTableRecord
100
AcDbBlockTableRecord
  2
*Paper_Space55
340
48EA
  0
BLOCK_RECORD
  5
48B3
330
1
100
AcDbSymbolTableRecord
100
AcDbBlockTableRecord
  2
*Paper_Space56
340
48B8
  0
BLOCK_RECORD
  5
48DF
330
1
100
AcDbSymbolTableRecord
100
AcDbBlockTableRecord
  2
*Paper_Space57
340
48E4
  0
BLOCK_RECORD
  5
48EB
330
1
100
AcDbSymbolTableRecord
100
AcDbBlockTableRecord
  2
*Paper_Space58
340
48F0
  0
BLOCK_RECORD
  5
48FD
330
1
100
AcDbSymbolTableRecord
100
AcDbBlockTableRecord
  2
*Paper_Space59
340
4902
  0
BLOCK_RECORD
  5
48F1
330
1
100
AcDbSymbolTableRecord
100
AcDbBlockTableRecord
  2
*Paper_Space60
340
48F6
  0
BLOCK_RECORD
  5
48F7
330
1
100
AcDbSymbolTableRecord
100
AcDbBlockTableRecord
  2
*Paper_Space61
340
48FC
  0
BLOCK_RECORD
  5
4A9F
330
1
100
AcDbSymbolTableRecord
100
AcDbBlockTableRecord
  2
A$C22752680
340
0
  0
BLOCK_RECORD
  5
4E48
330
1
100
AcDbSymbolTableRecord
100
AcDbBlockTableRecord
  2
A$C0A43386E
340
0
  0
BLOCK_RECORD
  5
4E57
330
1
100
AcDbSymbolTableRecord
100
AcDbBlockTableRecord
  2
A$C54E62184
340
0
  0
BLOCK_RECORD
  5
4E71
330
1
100
AcDbSymbolTableRecord
100
AcDbBlockTableRecord
  2
A$C75E65592
340
0
  0
BLOCK_RECORD
  5
70C
330
1
100
AcDbSymbolTableRecord
100
AcDbBlockTableRecord
  2
*Paper_Space66
340
711
  0
BLOCK_RECORD
  5
716
330
1
100
AcDbSymbolTableRecord
100
AcDbBlockTableRecord
  2
*Paper_Space67
340
71B
  0
BLOCK_RECORD
  5
4EFA
330
1
100
AcDbSymbolTableRecord
100
AcDbBlockTableRecord
  2
*Paper_Space68
340
4EFF
  0
BLOCK_RECORD
  5
4F0F
330
1
100
AcDbSymbolTableRecord
100
AcDbBlockTableRecord
  2
A$C1482487C
340
0
  0
ENDTAB
  0
ENDSEC
  0
SECTION
  2
BLOCKS
  0
BLOCK
  5
20
330
1F
100
AcDbEntity
  8
0
100
AcDbBlockBegin
  2
*Model_Space
 70
     0
 10
0.0
 20
0.0
 30
0.0
  3
*Model_Space
  1

  0
ENDBLK
  5
21
330
1F
100
AcDbEntity
  8
0
100
AcDbBlockEnd
  0
BLOCK
  5
677
330
676
100
AcDbEntity
 67
     1
  8
0
100
AcDbBlockBegin
  2
*Paper_Space
 70
     0
 10
0.0
 20
0.0
 30
0.0
  3
*Paper_Space
  1

  0
ENDBLK
  5
67A
330
676
100
AcDbEntity
 67
     1
  8
0
100
AcDbBlockEnd
  0
BLOCK
  5
82
330
81
100
AcDbEntity
  8
0
100
AcDbBlockBegin
  2
_ArchTick
 70
     0
 10
0.0
 20
0.0
 30
0.0
  3
_ArchTick
  1

  0
LWPOLYLINE
  5
83
330
81
100
AcDbEntity
  8
Vlak6
 62
     0
100
AcDbPolyline
 90
        2
 70
     0
 43
0.15
 10
-0.5
 20
-0.5
 10
0.5
 20
0.5
  0
ENDBLK
  5
84
330
81
100
AcDbEntity
  8
0
100
AcDbBlockEnd
  0
BLOCK
  5
EA
330
E8
100
AcDbEntity
  8
0
100
AcDbBlockBegin
  2
A$C6DC52714
 70
     0
 10
0.0
 20
0.0
 30
0.0
  3
A$C6DC52714
  1

  0
LWPOLYLINE
  5
E9
330
E8
100
AcDbEntity
  8
Omtrek kite
100
AcDbPolyline
 90
        9
 70
     0
 43
0.0
 10
1213.000002466446
 20
0.0000001898927167
 10
1205.000002466446
 20
0.0000001898927167
 42
0.0222661830540343
 10
1138.000002466446
 20
60.00000018989272
 42
0.034949482127883
 10
1056.000002466446
 20
120.0000001898927
 42
0.0618272120680853
 10
933.0000024664487
 20
180.0000001898909
 42
0.045622323810893
 10
748.0000024664469
 20
228.0000001898927
 42
0.0952811924982041
 10
523.0000024664458
 20
239.0000001898927
 42
0.0434521846675969
 10
243.0000024664423
 20
190.0000001898927
 42
0.02240400827921
 10
0.0000024664459488
 20
107.0000001898927
  0
ENDBLK
  5
EB
330
E8
100
AcDbEntity
  8
0
100
AcDbBlockEnd
  0
BLOCK
  5
1C7
330
1C5
100
AcDbEntity
  8
0
100
AcDbBlockBegin
  2
A$C23891203
 70
     0
 10
0.0
 20
0.0
 30
0.0
  3
A$C23891203
  1

  0
LINE
  5
1C6
330
1C5
100
AcDbEntity
  8
Vlak5
100
AcDbLine
 10
-0.0000023816996872
 20
-0.0000005737809943
 30
0.0
 11
12.47207839402063
 21
5.237595666168203
 31
0.0
  0
ENDBLK
  5
1C8
330
1C5
100
AcDbEntity
  8
0
100
AcDbBlockEnd
  0
BLOCK
  5
2CF
330
2CC
100
AcDbEntity
  8
0
100
AcDbBlockBegin
  2
A$C45AD5557
 70
     0
 10
0.0
 20
0.0
 30
0.0
  3
A$C45AD5557
  1

  0
LWPOLYLINE
  5
2CD
330
2CC
100
AcDbEntity
  8
Vlak2
100
AcDbPolyline
 90
        9
 70
     1
 43
0.0
 10
193.6121427056707
 20
77.60904582605622
 10
24.29331631783066
 20
17.16653664315981
 10
95.25712620358637
 20
104.3243825485718
 42
-0.0558666490195307
 10
166.8168015188673
 20
174.5290240070896
 42
-0.0285001575668087
 10
445.6279071815388
 20
308.3636072585632
 42
-0.0097009951215407
 10
646.0663082374163
 20
388.7405862815445
 10
575.1257176032123
 20
273.3953711700004
 10
252.2726651688909
 20
137.8146317653555
 42
0.1325419636746371
 10
220.1962036960054
 20
112.8618223590317
  0
LWPOLYLINE
  5
2CE
330
2CC
100
AcDbEntity
  8
Vlak2
100
AcDbPolyline
 90
       10
 70
     0
 43
0.0
 10
198.5574496889558
 20
70.87995086627256
 10
0.0000034137019611
 20
-0.0000010318960904
 10
89.05337519763634
 20
109.375468912531
 42
-0.0562184602212979
 10
162.3914022973531
 20
181.2239054504227
 42
-0.028555001343328
 10
442.5444960582616
 20
315.7456289847707
 42
-0.010748417760963
 10
665.1257687527629
 20
404.4593952959656
 10
580.5933669769756
 20
267.0146971400054
 10
255.3701843535701
 20
130.4386318398849
 42
0.1325419636667053
 10
226.5836163663953
 20
108.0450849385217
 10
198.5574496914805
 20
70.87995086717295
  0
ENDBLK
  5
2D0
330
2CC
100
AcDbEntity
  8
0
100
AcDbBlockEnd
  0
BLOCK
  5
6AD
330
6AC
100
AcDbEntity
  8
0
100
AcDbBlockBegin
  2
*Paper_Space4
 70
     0
 10
0.0
 20
0.0
 30
0.0
  3
*Paper_Space4
  1

  0
VIEWPORT
  5
6AE
330
6AC
100
AcDbEntity
  8
0
100
AcDbViewport
 10
177.9344141026533
 20
131.6890348805832
 30
0.0
 40
628.3185737108766
 41
289.1666893137789
 69
     0
 12
177.9344141026533
 22
131.6890348805832
 13
0.0
 23
0.0
 14
10.0
 24
10.0
 15
10.0
 25
10.0
 16
0.0
 26
0.0
 36
1.0
 17
0.0
 27
0.0
 37
0.0
 42
50.0
 43
0.0
 44
0.0
 45
289.1666893137789
 50
0.0
 51
0.0
 72
  1000
 90
    32800
  1

281
     0
 71
     1
 74
     0
110
0.0
120
0.0
130
0.0
111
1.0
121
0.0
131
0.0
112
0.0
122
1.0
132
0.0
 79
     0
146
0.0
170
     0
  0
VIEWPORT
  5
6AF
330
6AC
100
AcDbEntity
  8
Vieuwports
100
AcDbViewport
 10
143.8993272985268
 20
98.18158049921876
 30
0.0
 40
284.5264821757025
 41
193.9199916748989
 69
     0
 12
11815.03867598059
 22
173.2563574228683
 13
0.0
 23
0.0
 14
10.0
 24
10.0
 15
10.0
 25
10.0
 16
0.0
 26
0.0
 36
1.0
 17
0.0
 27
0.0
 37
0.0
 42
50.0
 43
0.0
 44
0.0
 45
193.9199894442055
 50
0.0
 51
0.0
 72
  1000
 90
    32864
  1

281
     0
 71
     1
 74
     0
110
0.0
120
0.0
130
0.0
111
1.0
121
0.0
131
0.0
112
0.0
122
1.0
132
0.0
 79
     0
146
0.0
170
     0
  0
ENDBLK
  5
6B0
330
6AC
100
AcDbEntity
  8
0
100
AcDbBlockEnd
  0
BLOCK
  5
657
330
656
100
AcDbEntity
  8
0
100
AcDbBlockBegin
  2
*Paper_Space5
 70
     0
 10
0.0
 20
0.0
 30
0.0
  3
*Paper_Space5
  1

  0
VIEWPORT
  5
658
330
656
100
AcDbEntity
  8
0
100
AcDbViewport
 10
177.9344141026533
 20
131.6890348805832
 30
0.0
 40
628.3185737108766
 41
289.1666893137789
 69
     0
 12
177.9344141026533
 22
131.6890348805832
 13
0.0
 23
0.0
 14
10.0
 24
10.0
 15
10.0
 25
10.0
 16
0.0
 26
0.0
 36
1.0
 17
0.0
 27
0.0
 37
0.0
 42
50.0
 43
0.0
 44
0.0
 45
289.1666893137789
 50
0.0
 51
0.0
 72
  1000
 90
    32800
  1

281
     0
 71
     1
 74
     0
110
0.0
120
0.0
130
0.0
111
1.0
121
0.0
131
0.0
112
0.0
122
1.0
132
0.0
 79
     0
146
0.0
170
     0
  0
VIEWPORT
  5
659
330
656
100
AcDbEntity
  8
Vieuwports
100
AcDbViewport
 10
143.8993272985268
 20
98.18158049921876
 30
0.0
 40
284.5264821757025
 41
193.9199916748989
 69
     0
 12
10136.12617618142
 22
-16.67200855791139
 13
0.0
 23
0.0
 14
10.0
 24
10.0
 15
10.0
 25
10.0
 16
0.0
 26
0.0
 36
1.0
 17
0.0
 27
0.0
 37
0.0
 42
50.0
 43
0.0
 44
0.0
 45
193.919975773956
 50
0.0
 51
0.0
 72
  1000
 90
    32864
  1

281
     0
 71
     1
 74
     0
110
0.0
120
0.0
130
0.0
111
1.0
121
0.0
131
0.0
112
0.0
122
1.0
132
0.0
 79
     0
146
0.0
170
     0
  0
ENDBLK
  5
65A
330
656
100
AcDbEntity
  8
0
100
AcDbBlockEnd
  0
BLOCK
  5
697
330
696
100
AcDbEntity
  8
0
100
AcDbBlockBegin
  2
*Paper_Space6
 70
     0
 10
0.0
 20
0.0
 30
0.0
  3
*Paper_Space6
  1

  0
VIEWPORT
  5
698
330
696
100
AcDbEntity
  8
0
100
AcDbViewport
 10
178.9948673916168
 20
132.1770799258386
 30
0.0
 40
630.4394802888038
 41
290.1427794042896
 69
     0
 12
178.9948673916168
 22
132.1770799258386
 13
0.0
 23
0.0
 14
10.0
 24
10.0
 15
10.0
 25
10.0
 16
0.0
 26
0.0
 36
1.0
 17
0.0
 27
0.0
 37
0.0
 42
50.0
 43
0.0
 44
0.0
 45
290.1427794042896
 50
0.0
 51
0.0
 72
  1000
 90
    32800
  1

281
     0
 71
     1
 74
     0
110
0.0
120
0.0
130
0.0
111
1.0
121
0.0
131
0.0
112
0.0
122
1.0
132
0.0
 79
     0
146
0.0
170
     0
  0
VIEWPORT
  5
699
330
696
100
AcDbEntity
  8
Vieuwports
100
AcDbViewport
 10
143.8993272985268
 20
98.18158049921876
 30
0.0
 40
284.5264821757025
 41
193.9199916748989
 69
     0
 12
11533.93294901913
 22
173.5723296484933
 13
0.0
 23
0.0
 14
10.0
 24
10.0
 15
10.0
 25
10.0
 16
0.0
 26
0.0
 36
1.0
 17
0.0
 27
0.0
 37
0.0
 42
50.0
 43
0.0
 44
0.0
 45
193.9199924151997
 50
0.0
 51
0.0
 72
  1000
 90
    32864
  1

281
     0
 71
     1
 74
     0
110
0.0
120
0.0
130
0.0
111
1.0
121
0.0
131
0.0
112
0.0
122
1.0
132
0.0
 79
     0
146
0.0
170
     0
  0
ENDBLK
  5
69A
330
696
100
AcDbEntity
  8
0
100
AcDbBlockEnd
  0
BLOCK
  5
4896
330
4895
100
AcDbEntity
  8
0
100
AcDbBlockBegin
  2
*Paper_Space7
 70
     0
 10
0.0
 20
0.0
 30
0.0
  3
*Paper_Space7
  1

  0
VIEWPORT
  5
4897
330
4895
100
AcDbEntity
  8
0
100
AcDbViewport
 10
168.8047710103323
 20
111.8551072100022
 30
0.0
 40
557.2257797076736
 41
248.4264274099365
 69
     1
 12
168.8047710103323
 22
111.8551072100022
 13
0.0
 23
0.0
 14
10.0
 24
10.0
 15
10.0
 25
10.0
 16
0.0
 26
0.0
 36
1.0
 17
0.0
 27
0.0
 37
0.0
 42
50.0
 43
0.0
 44
0.0
 45
248.4264274099365
 50
0.0
 51
0.0
 72
  1000
 90
    32800
  1

281
     0
 71
     1
 74
     0
110
0.0
120
0.0
130
0.0
111
1.0
121
0.0
131
0.0
112
0.0
122
1.0
132
0.0
 79
     0
146
0.0
170
     0
  0
VIEWPORT
  5
4898
330
4895
100
AcDbEntity
  8
Vieuwports
100
AcDbViewport
 10
143.8993272985268
 20
98.18158049921876
 30
0.0
 40
284.5264821757025
 41
193.9199916748989
 69
     0
 12
5863.994664474775
 22
362.9787079369144
 13
0.0
 23
0.0
 14
10.0
 24
10.0
 15
10.0
 25
10.0
 16
0.0
 26
0.0
 36
1.0
 17
0.0
 27
0.0
 37
0.0
 42
50.0
 43
0.0
 44
0.0
 45
193.91999896685
 50
0.0
 51
0.0
 72
  1000
 90
    32864
  1

281
     0
 71
     1
 74
     0
110
0.0
120
0.0
130
0.0
111
1.0
121
0.0
131
0.0
112
0.0
122
1.0
132
0.0
 79
     0
146
0.0
170
     0
  0
ENDBLK
  5
4899
330
4895
100
AcDbEntity
  8
0
100
AcDbBlockEnd
  0
BLOCK
  5
F55
330
F54
100
AcDbEntity
  8
0
100
AcDbBlockBegin
  2
*Paper_Space8
 70
     0
 10
0.0
 20
0.0
 30
0.0
  3
*Paper_Space8
  1

  0
VIEWPORT
  5
F56
330
F54
100
AcDbEntity
  8
0
100
AcDbViewport
 10
145.3209365633632
 20
131.7540356407042
 30
0.0
 40
596.6509122219649
 41
289.2966907305745
 69
     1
 12
145.3209365633632
 22
131.7540356407042
 13
0.0
 23
0.0
 14
10.0
 24
10.0
 15
10.0
 25
10.0
 16
0.0
 26
0.0
 36
1.0
 17
0.0
 27
0.0
 37
0.0
 42
50.0
 43
0.0
 44
0.0
 45
289.2966907305745
 50
0.0
 51
0.0
 72
  1000
 90
    32800
  1

281
     0
 71
     1
 74
     0
110
0.0
120
0.0
130
0.0
111
1.0
121
0.0
131
0.0
112
0.0
122
1.0
132
0.0
 79
     0
146
0.0
170
     0
  0
VIEWPORT
  5
F57
330
F54
100
AcDbEntity
  8
Vieuwports
100
AcDbViewport
 10
143.8993272985268
 20
98.18158049921876
 30
0.0
 40
284.5264821757025
 41
193.9199916748989
 69
     2
 12
8581.406093665266
 22
-28.20276702476803
 13
0.0
 23
0.0
 14
10.0
 24
10.0
 15
10.0
 25
10.0
 16
0.0
 26
0.0
 36
1.0
 17
0.0
 27
0.0
 37
0.0
 42
50.0
 43
0.0
 44
0.0
 45
1558.613312963072
 50
0.0
 51
0.0
 72
  1000
 90
    32864
  1

281
     0
 71
     1
 74
     0
110
0.0
120
0.0
130
0.0
111
1.0
121
0.0
131
0.0
112
0.0
122
1.0
132
0.0
 79
     0
146
0.0
170
     0
  0
ENDBLK
  5
F58
330
F54
100
AcDbEntity
  8
0
100
AcDbBlockEnd
  0
BLOCK
  5
6C2
330
6C1
100
AcDbEntity
  8
0
100
AcDbBlockBegin
  2
*Paper_Space9
 70
     0
 10
0.0
 20
0.0
 30
0.0
  3
*Paper_Space9
  1

  0
VIEWPORT
  5
6C3
330
6C1
100
AcDbEntity
  8
0
100
AcDbViewport
 10
175.3611475239295
 20
130.6114540267342
 30
0.0
 40
623.1720405534289
 41
287.0115276060807
 69
     0
 12
175.3611475239295
 22
130.6114540267342
 13
0.0
 23
0.0
 14
10.0
 24
10.0
 15
10.0
 25
10.0
 16
0.0
 26
0.0
 36
1.0
 17
0.0
 27
0.0
 37
0.0
 42
50.0
 43
0.0
 44
0.0
 45
287.0115276060807
 50
0.0
 51
0.0
 72
  1000
 90
    32800
  1

281
     0
 71
     1
 74
     0
110
0.0
120
0.0
130
0.0
111
1.0
121
0.0
131
0.0
112
0.0
122
1.0
132
0.0
 79
     0
146
0.0
170
     0
  0
VIEWPORT
  5
6C4
330
6C1
100
AcDbEntity
  8
Vieuwports
100
AcDbViewport
 10
143.8993272985268
 20
98.18158049921876
 30
0.0
 40
284.5264821757025
 41
193.9199916748989
 69
     0
 12
11535.81195786376
 22
-16.44987564440453
 13
0.0
 23
0.0
 14
10.0
 24
10.0
 15
10.0
 25
10.0
 16
0.0
 26
0.0
 36
1.0
 17
0.0
 27
0.0
 37
0.0
 42
50.0
 43
0.0
 44
0.0
 45
193.9199960498439
 50
0.0
 51
0.0
 72
  1000
 90
    32864
  1

281
     0
 71
     1
 74
     0
110
0.0
120
0.0
130
0.0
111
1.0
121
0.0
131
0.0
112
0.0
122
1.0
132
0.0
 79
     0
146
0.0
170
     0
  0
ENDBLK
  5
6C5
330
6C1
100
AcDbEntity
  8
0
100
AcDbBlockEnd
  0
BLOCK
  5
6A2
330
6A1
100
AcDbEntity
  8
0
100
AcDbBlockBegin
  2
*Paper_Space10
 70
     0
 10
0.0
 20
0.0
 30
0.0
  3
*Paper_Space10
  1

  0
VIEWPORT
  5
6A3
330
6A1
100
AcDbEntity
  8
0
100
AcDbViewport
 10
177.9344141026533
 20
131.6890348805832
 30
0.0
 40
628.3185737108766
 41
289.1666893137789
 69
     0
 12
177.9344141026533
 22
131.6890348805832
 13
0.0
 23
0.0
 14
10.0
 24
10.0
 15
10.0
 25
10.0
 16
0.0
 26
0.0
 36
1.0
 17
0.0
 27
0.0
 37
0.0
 42
50.0
 43
0.0
 44
0.0
 45
289.1666893137789
 50
0.0
 51
0.0
 72
  1000
 90
    32800
  1

281
     0
 71
     1
 74
     0
110
0.0
120
0.0
130
0.0
111
1.0
121
0.0
131
0.0
112
0.0
122
1.0
132
0.0
 79
     0
146
0.0
170
     0
  0
VIEWPORT
  5
6A4
330
6A1
100
AcDbEntity
  8
Vieuwports
100
AcDbViewport
 10
143.8993272985268
 20
98.18158049921876
 30
0.0
 40
284.5264821757025
 41
193.9199916748989
 69
     0
 12
10975.33265506944
 22
-16.2316106698153
 13
0.0
 23
0.0
 14
10.0
 24
10.0
 15
10.0
 25
10.0
 16
0.0
 26
0.0
 36
1.0
 17
0.0
 27
0.0
 37
0.0
 42
50.0
 43
0.0
 44
0.0
 45
193.9200167847058
 50
0.0
 51
0.0
 72
  1000
 90
    32864
  1

281
     0
 71
     1
 74
     0
110
0.0
120
0.0
130
0.0
111
1.0
121
0.0
131
0.0
112
0.0
122
1.0
132
0.0
 79
     0
146
0.0
170
     0
  0
ENDBLK
  5
6A5
330
6A1
100
AcDbEntity
  8
0
100
AcDbBlockEnd
  0
BLOCK
  5
662
330
661
100
AcDbEntity
  8
0
100
AcDbBlockBegin
  2
*Paper_Space11
 70
     0
 10
0.0
 20
0.0
 30
0.0
  3
*Paper_Space11
  1

  0
VIEWPORT
  5
663
330
661
100
AcDbEntity
  8
0
100
AcDbViewport
 10
177.9344141026533
 20
131.6890348805832
 30
0.0
 40
628.3185737108766
 41
289.1666893137789
 69
     0
 12
177.9344141026533
 22
131.6890348805832
 13
0.0
 23
0.0
 14
10.0
 24
10.0
 15
10.0
 25
10.0
 16
0.0
 26
0.0
 36
1.0
 17
0.0
 27
0.0
 37
0.0
 42
50.0
 43
0.0
 44
0.0
 45
289.1666893137789
 50
0.0
 51
0.0
 72
  1000
 90
    32800
  1

281
     0
 71
     1
 74
     0
110
0.0
120
0.0
130
0.0
111
1.0
121
0.0
131
0.0
112
0.0
122
1.0
132
0.0
 79
     0
146
0.0
170
     0
  0
VIEWPORT
  5
664
330
661
100
AcDbEntity
  8
Vieuwports
100
AcDbViewport
 10
143.8993272985268
 20
98.18158049921876
 30
0.0
 40
284.5264821757025
 41
193.9199916748989
 69
     0
 12
10415.99619646898
 22
-16.62270587047351
 13
0.0
 23
0.0
 14
10.0
 24
10.0
 15
10.0
 25
10.0
 16
0.0
 26
0.0
 36
1.0
 17
0.0
 27
0.0
 37
0.0
 42
50.0
 43
0.0
 44
0.0
 45
193.9200031144561
 50
0.0
 51
0.0
 72
  1000
 90
    32864
  1

281
     0
 71
     1
 74
     0
110
0.0
120
0.0
130
0.0
111
1.0
121
0.0
131
0.0
112
0.0
122
1.0
132
0.0
 79
     0
146
0.0
170
     0
  0
ENDBLK
  5
665
330
661
100
AcDbEntity
  8
0
100
AcDbBlockEnd
  0
BLOCK
  5
683
330
682
100
AcDbEntity
  8
0
100
AcDbBlockBegin
  2
*Paper_Space12
 70
     0
 10
0.0
 20
0.0
 30
0.0
  3
*Paper_Space12
  1

  0
VIEWPORT
  5
684
330
682
100
AcDbEntity
  8
0
100
AcDbViewport
 10
177.9344141026533
 20
131.7966117739292
 30
0.0
 40
628.3185737108766
 41
289.3818431004707
 69
     0
 12
177.9344141026533
 22
131.7966117739292
 13
0.0
 23
0.0
 14
10.0
 24
10.0
 15
10.0
 25
10.0
 16
0.0
 26
0.0
 36
1.0
 17
0.0
 27
0.0
 37
0.0
 42
50.0
 43
0.0
 44
0.0
 45
289.3818431004707
 50
0.0
 51
0.0
 72
  1000
 90
    32800
  1

281
     0
 71
     1
 74
     0
110
0.0
120
0.0
130
0.0
111
1.0
121
0.0
131
0.0
112
0.0
122
1.0
132
0.0
 79
     0
146
0.0
170
     0
  0
VIEWPORT
  5
685
330
682
100
AcDbEntity
  8
Vieuwports
100
AcDbViewport
 10
143.8993272985268
 20
98.18158049921876
 30
0.0
 40
284.5264821757025
 41
193.9199916748989
 69
     0
 12
10976.92832264891
 22
174.0351423268803
 13
0.0
 23
0.0
 14
10.0
 24
10.0
 15
10.0
 25
10.0
 16
0.0
 26
0.0
 36
1.0
 17
0.0
 27
0.0
 37
0.0
 42
50.0
 43
0.0
 44
0.0
 45
193.9199924152009
 50
0.0
 51
0.0
 72
  1000
 90
    32864
  1

281
     0
 71
     1
 74
     0
110
0.0
120
0.0
130
0.0
111
1.0
121
0.0
131
0.0
112
0.0
122
1.0
132
0.0
 79
     0
146
0.0
170
     0
  0
ENDBLK
  5
686
330
682
100
AcDbEntity
  8
0
100
AcDbBlockEnd
  0
BLOCK
  5
649
330
648
100
AcDbEntity
  8
0
100
AcDbBlockBegin
  2
*Paper_Space13
 70
     0
 10
0.0
 20
0.0
 30
0.0
  3
*Paper_Space13
  1

  0
VIEWPORT
  5
64A
330
648
100
AcDbEntity
  8
0
100
AcDbViewport
 10
178.9948673916169
 20
139.9455263971144
 30
0.0
 40
630.4394802888038
 41
305.6796723468413
 69
     1
 12
178.9948673916169
 22
139.9455263971144
 13
0.0
 23
0.0
 14
10.0
 24
10.0
 15
10.0
 25
10.0
 16
0.0
 26
0.0
 36
1.0
 17
0.0
 27
0.0
 37
0.0
 42
50.0
 43
0.0
 44
0.0
 45
305.6796723468413
 50
0.0
 51
0.0
 72
  1000
 90
    32800
  1

281
     0
 71
     1
 74
     0
110
0.0
120
0.0
130
0.0
111
1.0
121
0.0
131
0.0
112
0.0
122
1.0
132
0.0
 79
     0
146
0.0
170
     0
  0
VIEWPORT
  5
64B
330
648
100
AcDbEntity
  8
Vieuwports
100
AcDbViewport
 10
143.8993272985268
 20
98.18158049921876
 30
0.0
 40
284.5264821757025
 41
193.9199916748989
 69
     2
 12
10416.67996958249
 22
174.4979550052697
 13
0.0
 23
0.0
 14
10.0
 24
10.0
 15
10.0
 25
10.0
 16
0.0
 26
0.0
 36
1.0
 17
0.0
 27
0.0
 37
0.0
 42
50.0
 43
0.0
 44
0.0
 45
193.9199924151997
 50
0.0
 51
0.0
 72
  1000
 90
    32864
  1

281
     0
 71
     1
 74
     0
110
0.0
120
0.0
130
0.0
111
1.0
121
0.0
131
0.0
112
0.0
122
1.0
132
0.0
 79
     0
146
0.0
170
     0
  0
ENDBLK
  5
64C
330
648
100
AcDbEntity
  8
0
100
AcDbBlockEnd
  0
BLOCK
  5
831
330
82D
100
AcDbEntity
  8
0
100
AcDbBlockBegin
  2
A$C68E3032D
 70
     0
 10
0.0
 20
0.0
 30
0.0
  3
A$C68E3032D
  1

  0
LINE
  5
82E
330
82D
100
AcDbEntity
  8
Omtrek kite
100
AcDbLine
 10
1218.095254222731
 20
-0.0000003917045888
 30
0.0
 11
1218.095254222729
 21
784.5497622124333
 31
0.0
  0
LWPOLYLINE
  5
82F
330
82D
100
AcDbEntity
  8
Omtrek kite
100
AcDbPolyline
 90
        9
 70
     0
 43
0.0
 10
1218.095254222731
 20
-0.0000003917045888
 10
1210.095254222731
 20
-0.0000003917045888
 42
0.0222661830540343
 10
1143.09525422273
 20
59.99999960829541
 42
0.034949482127883
 10
1061.09525422273
 20
119.9999996082954
 42
0.0618272120680853
 10
938.0952542227332
 20
179.9999996082936
 42
0.0354233972838536
 10
753.0952542227313
 20
229.9999996082954
 42
0.0730957080284312
 10
528.0952542227304
 20
241.9999996082954
 42
0.0330116054772166
 10
248.0952542227269
 20
189.9999996082954
 42
0.02240400827921
 10
5.095254222730544
 20
106.9999996082954
  0
LWPOLYLINE
  5
830
330
82D
100
AcDbEntity
  8
Omtrek kite
100
AcDbPolyline
 90
        6
 70
     0
 43
0.0
 10
1218.095254222729
 20
784.5497622124333
 42
0.0119365060452128
 10
970.6840084163356
 20
686.6201163633689
 42
0.0313399840384473
 10
664.0849314219622
 20
537.2945110290095
 42
0.0121264592466024
 10
487.3630000866486
 20
437.4513585673741
 42
0.0196467520312258
 10
325.3920243924777
 20
337.9962002385439
 10
0.000009036699339
 20
114.8388383560361
  0
ENDBLK
  5
832
330
82D
100
AcDbEntity
  8
0
100
AcDbBlockEnd
  0
BLOCK
  5
735
330
734
100
AcDbEntity
  8
0
100
AcDbBlockBegin
  2
*Paper_Space15
 70
     0
 10
0.0
 20
0.0
 30
0.0
  3
*Paper_Space15
  1

  0
VIEWPORT
  5
736
330
734
100
AcDbEntity
  8
0
100
AcDbViewport
 10
178.9948673916169
 20
132.2850199479384
 30
0.0
 40
630.4394802888038
 41
290.3586594484892
 69
     0
 12
178.9948673916169
 22
132.2850199479384
 13
0.0
 23
0.0
 14
10.0
 24
10.0
 15
10.0
 25
10.0
 16
0.0
 26
0.0
 36
1.0
 17
0.0
 27
0.0
 37
0.0
 42
50.0
 43
0.0
 44
0.0
 45
290.3586594484892
 50
0.0
 51
0.0
 72
  1000
 90
    32800
  1

281
     0
 71
     1
 74
     0
110
0.0
120
0.0
130
0.0
111
1.0
121
0.0
131
0.0
112
0.0
122
1.0
132
0.0
 79
     0
146
0.0
170
     0
  0
VIEWPORT
  5
737
330
734
100
AcDbEntity
  8
Vieuwports
100
AcDbViewport
 10
143.8993272985268
 20
98.18158049921876
 30
0.0
 40
284.5264821757025
 41
193.9199916748989
 69
     0
 12
11815.2518672216
 22
-16.42106013649465
 13
0.0
 23
0.0
 14
10.0
 24
10.0
 15
10.0
 25
10.0
 16
0.0
 26
0.0
 36
1.0
 17
0.0
 27
0.0
 37
0.0
 42
50.0
 43
0.0
 44
0.0
 45
193.9200118181261
 50
0.0
 51
0.0
 72
  1000
 90
    32864
  1

281
     0
 71
     1
 74
     0
110
0.0
120
0.0
130
0.0
111
1.0
121
0.0
131
0.0
112
0.0
122
1.0
132
0.0
 79
     0
146
0.0
170
     0
  0
ENDBLK
  5
738
330
734
100
AcDbEntity
  8
0
100
AcDbBlockEnd
  0
BLOCK
  5
66D
330
66C
100
AcDbEntity
  8
0
100
AcDbBlockBegin
  2
*Paper_Space16
 70
     0
 10
0.0
 20
0.0
 30
0.0
  3
*Paper_Space16
  1

  0
VIEWPORT
  5
66E
330
66C
100
AcDbEntity
  8
0
100
AcDbViewport
 10
177.9344141026533
 20
131.6890348805832
 30
0.0
 40
628.3185737108766
 41
289.1666893137789
 69
     0
 12
177.9344141026533
 22
131.6890348805832
 13
0.0
 23
0.0
 14
10.0
 24
10.0
 15
10.0
 25
10.0
 16
0.0
 26
0.0
 36
1.0
 17
0.0
 27
0.0
 37
0.0
 42
50.0
 43
0.0
 44
0.0
 45
289.1666893137789
 50
0.0
 51
0.0
 72
  1000
 90
    32800
  1

281
     0
 71
     1
 74
     0
110
0.0
120
0.0
130
0.0
111
1.0
121
0.0
131
0.0
112
0.0
122
1.0
132
0.0
 79
     0
146
0.0
170
     0
  0
VIEWPORT
  5
66F
330
66C
100
AcDbEntity
  8
Vieuwports
100
AcDbViewport
 10
143.8993272985268
 20
98.18158049921876
 30
0.0
 40
284.5264821757025
 41
193.9199916748989
 69
     0
 12
10695.88866740955
 22
-16.64960195575799
 13
0.0
 23
0.0
 14
10.0
 24
10.0
 15
10.0
 25
10.0
 16
0.0
 26
0.0
 36
1.0
 17
0.0
 27
0.0
 37
0.0
 42
50.0
 43
0.0
 44
0.0
 45
193.9199757739535
 50
0.0
 51
0.0
 72
  1000
 90
    32864
  1

281
     0
 71
     1
 74
     0
110
0.0
120
0.0
130
0.0
111
1.0
121
0.0
131
0.0
112
0.0
122
1.0
132
0.0
 79
     0
146
0.0
170
     0
  0
ENDBLK
  5
670
330
66C
100
AcDbEntity
  8
0
100
AcDbBlockEnd
  0
BLOCK
  5
48A8
330
48A7
100
AcDbEntity
  8
0
100
AcDbBlockBegin
  2
*Paper_Space17
 70
     0
 10
0.0
 20
0.0
 30
0.0
  3
*Paper_Space17
  1

  0
VIEWPORT
  5
48A9
330
48A7
100
AcDbEntity
  8
0
100
AcDbViewport
 10
159.8890689100938
 20
111.8551072100022
 30
0.0
 40
539.3943755071965
 41
248.4264274099365
 69
     0
 12
159.8890689100938
 22
111.8551072100022
 13
0.0
 23
0.0
 14
10.0
 24
10.0
 15
10.0
 25
10.0
 16
0.0
 26
0.0
 36
1.0
 17
0.0
 27
0.0
 37
0.0
 42
50.0
 43
0.0
 44
0.0
 45
248.4264274099365
 50
0.0
 51
0.0
 72
  1000
 90
    32800
  1

281
     0
 71
     1
 74
     0
110
0.0
120
0.0
130
0.0
111
1.0
121
0.0
131
0.0
112
0.0
122
1.0
132
0.0
 79
     0
146
0.0
170
     0
  0
VIEWPORT
  5
48AA
330
48A7
100
AcDbEntity
  8
Vieuwports
100
AcDbViewport
 10
143.8993272985268
 20
98.18158049921876
 30
0.0
 40
284.5264821757025
 41
193.9199916748989
 69
     0
 12
6144.509216421186
 22
173.4729499535033
 13
0.0
 23
0.0
 14
10.0
 24
10.0
 15
10.0
 25
10.0
 16
0.0
 26
0.0
 36
1.0
 17
0.0
 27
0.0
 37
0.0
 42
50.0
 43
0.0
 44
0.0
 45
193.9199989668518
 50
0.0
 51
0.0
 72
  1000
 90
    32864
  1

281
     0
 71
     1
 74
     0
110
0.0
120
0.0
130
0.0
111
1.0
121
0.0
131
0.0
112
0.0
122
1.0
132
0.0
 79
     0
146
0.0
170
     0
  0
ENDBLK
  5
48AB
330
48A7
100
AcDbEntity
  8
0
100
AcDbBlockEnd
  0
BLOCK
  5
6B7
330
6B6
100
AcDbEntity
  8
0
100
AcDbBlockBegin
  2
*Paper_Space18
 70
     0
 10
0.0
 20
0.0
 30
0.0
  3
*Paper_Space18
  1

  0
VIEWPORT
  5
6B8
330
6B6
100
AcDbEntity
  8
0
100
AcDbViewport
 10
177.9344141026533
 20
131.6890348805832
 30
0.0
 40
628.3185737108766
 41
289.1666893137789
 69
     0
 12
177.9344141026533
 22
131.6890348805832
 13
0.0
 23
0.0
 14
10.0
 24
10.0
 15
10.0
 25
10.0
 16
0.0
 26
0.0
 36
1.0
 17
0.0
 27
0.0
 37
0.0
 42
50.0
 43
0.0
 44
0.0
 45
289.1666893137789
 50
0.0
 51
0.0
 72
  1000
 90
    32800
  1

281
     0
 71
     1
 74
     0
110
0.0
120
0.0
130
0.0
111
1.0
121
0.0
131
0.0
112
0.0
122
1.0
132
0.0
 79
     0
146
0.0
170
     0
  0
VIEWPORT
  5
6B9
330
6B6
100
AcDbEntity
  8
Vieuwports
100
AcDbViewport
 10
143.8993272985268
 20
98.18158049921876
 30
0.0
 40
284.5264821757025
 41
193.9199916748989
 69
     0
 12
11255.64738021077
 22
-16.67653885452455
 13
0.0
 23
0.0
 14
10.0
 24
10.0
 15
10.0
 25
10.0
 16
0.0
 26
0.0
 36
1.0
 17
0.0
 27
0.0
 37
0.0
 42
50.0
 43
0.0
 44
0.0
 45
193.9200031144561
 50
0.0
 51
0.0
 72
  1000
 90
    32864
  1

281
     0
 71
     1
 74
     0
110
0.0
120
0.0
130
0.0
111
1.0
121
0.0
131
0.0
112
0.0
122
1.0
132
0.0
 79
     0
146
0.0
170
     0
  0
ENDBLK
  5
6BA
330
6B6
100
AcDbEntity
  8
0
100
AcDbBlockEnd
  0
BLOCK
  5
1135
330
1132
100
AcDbEntity
  8
0
100
AcDbBlockBegin
  2
A$C7BC96941
 70
     0
 10
0.0
 20
0.0
 30
0.0
  3
A$C7BC96941
  1

  0
LWPOLYLINE
  5
1133
330
1132
100
AcDbEntity
  8
Afdruklaag
100
AcDbPolyline
 90
        7
 70
     1
 43
0.0
 10
-400.3234117466272
 20
-14.41351539229254
 10
-376.9915788798207
 20
-8.0
 10
-29.80803449600717
 20
-8.000000000000909
 10
-77.53410346020245
 20
-35.60631004862808
 42
0.5766791342727564
 10
-75.88184133493268
 20
-120.4113198011728
 42
0.0360718228146055
 10
-354.1268997793122
 20
-69.1194598327984
 42
0.0196256763197817
 10
-579.5449687001455
 20
-60.20950574435483
  0
LWPOLYLINE
  5
1134
330
1132
100
AcDbEntity
  8
Afdruklaag
100
AcDbPolyline
 90
       10
 70
     1
 43
0.0
 10
-402.3740744908573
 20
-6.680468478092733
 10
-378.0710886135385
 20
-0.0000000000009095
 10
0.0
 20
0.0
 10
-73.4573185867921
 20
-42.49010145312968
 42
0.6498363205527557
 10
-63.91875743496711
 20
-116.8113258054745
 10
-59.81076637912337
 20
-117.8124622971581
 10
-63.35049192648877
 20
-131.9958367051686
 42
0.0379816624025998
 10
-354.8816456455424
 20
-77.08477343765571
 42
0.0224040082792101
 10
-611.517999212414
 20
-68.37948608464285
 10
-613.4985793564882
 20
-60.62853115683537
  0
ENDBLK
  5
1136
330
1132
100
AcDbEntity
  8
0
100
AcDbBlockEnd
  0
BLOCK
  5
113A
330
1137
100
AcDbEntity
  8
0
100
AcDbBlockBegin
  2
A$C51F15CC7
 70
     0
 10
0.0
 20
0.0
 30
0.0
  3
A$C51F15CC7
  1

  0
LWPOLYLINE
  5
1138
330
1137
100
AcDbEntity
  8
Afdruklaag
100
AcDbPolyline
 90
        7
 70
     1
 43
0.0
 10
-400.3234117466272
 20
-14.41351539229254
 10
-376.9915788798207
 20
-8.0
 10
-29.80803449600717
 20
-8.000000000000909
 10
-77.53410346020245
 20
-35.60631004862808
 42
0.5766791342727564
 10
-75.88184133493268
 20
-120.4113198011728
 42
0.0360718228146055
 10
-354.1268997793122
 20
-69.1194598327984
 42
0.0196256763197817
 10
-579.5449687001455
 20
-60.20950574435483
  0
LWPOLYLINE
  5
1139
330
1137
100
AcDbEntity
  8
Afdruklaag
100
AcDbPolyline
 90
       10
 70
     1
 43
0.0
 10
-402.3740744908573
 20
-6.680468478092733
 10
-378.0710886135385
 20
-0.0000000000009095
 10
0.0
 20
0.0
 10
-73.4573185867921
 20
-42.49010145312968
 42
0.6498363205527557
 10
-63.91875743496711
 20
-116.8113258054745
 10
-59.81076637912337
 20
-117.8124622971581
 10
-63.35049192648877
 20
-131.9958367051686
 42
0.0379816624025998
 10
-354.8816456455424
 20
-77.08477343765571
 42
0.0224040082792101
 10
-611.517999212414
 20
-68.37948608464285
 10
-613.4985793564882
 20
-60.62853115683537
  0
ENDBLK
  5
113B
330
1137
100
AcDbEntity
  8
0
100
AcDbBlockEnd
  0
BLOCK
  5
1279
330
1277
100
AcDbEntity
  8
0
100
AcDbBlockBegin
  2
A$C4EE01F58
 70
     0
 10
0.0
 20
0.0
 30
0.0
  3
A$C4EE01F58
  1

  0
LINE
  5
1278
330
1277
100
AcDbEntity
  8
Afmetingen
100
AcDbLine
 10
0.0
 20
0.0
 30
0.0
 11
9.004569198359604
 21
14.42158665556178
 31
0.0
  0
ENDBLK
  5
127A
330
1277
100
AcDbEntity
  8
0
100
AcDbBlockEnd
  0
BLOCK
  5
12A8
330
12A0
100
AcDbEntity
  8
0
100
AcDbBlockBegin
  2
A$C33977617
 70
     0
 10
0.0
 20
0.0
 30
0.0
  3
A$C33977617
  1

  0
HATCH
  5
12A1
330
12A0
100
AcDbEntity
  8
Afmetingen
100
AcDbHatch
 10
0.0
 20
0.0
 30
0.0
210
0.0
220
0.0
230
1.0
  2
SOLID
 70
     1
 71
     0
 91
        2
 92
        7
 72
     1
 73
     1
 93
        4
 10
1.410882450335519
 20
3.077246815548618
 42
0.0
 10
-1.310343567818107
 20
4.34015178351899
 42
0.0
 10
-0.1493699529314654
 20
0.494746785150369
 42
-0.0000177167263639
 10
0.1605405261102533
 20
0.3501516534007578
 42
0.0
 97
        0
 92
        7
 72
     1
 73
     1
 93
        4
 10
4.143666404233953
 20
1.839550624508888
 42
0.0
 10
1.410882450335519
 20
3.077246815548163
 42
0.0
 10
0.160540526110708
 20
0.3501516534012126
 42
-0.0000175086611095
 10
0.4668013481755226
 20
0.2072330703741727
 42
0.0
 97
        0
 75
     0
 76
     1
 47
0.1791203652383425
 98
        2
 10
0.3562042803500844
 20
2.33607349270744
 10
1.611626868213078
 20
1.798711946411571
450
        0
451
        0
460
0.0
461
0.0
452
        1
462
1.0
453
        2
463
0.0
 63
     5
421
      255
463
1.0
 63
     7
421
 16777215
470
LINEAR
  0
LINE
  5
12A2
330
12A0
100
AcDbEntity
  8
Afmetingen
100
AcDbLine
 10
1.410882450335066
 20
3.077246815548392
 30
0.0
 11
4.143666404233953
 21
1.839550624508888
 31
0.0
  0
LINE
  5
12A3
330
12A0
100
AcDbEntity
  8
Afmetingen
100
AcDbLine
 10
-1.310343567818107
 20
4.34015178351933
 30
0.0
 11
0.0
 21
0.0
 31
0.0
  0
LINE
  5
12A4
330
12A0
100
AcDbEntity
  8
Afmetingen
100
AcDbLine
 10
1.410882450335066
 20
3.077246815548392
 30
0.0
 11
-1.310343567818107
 21
4.34015178351933
 31
0.0
  0
LINE
  5
12A5
330
12A0
100
AcDbEntity
  8
Afmetingen
100
AcDbLine
 10
0.0
 20
0.0
 30
0.0
 11
6.935340664857449
 21
15.12652947848823
 31
0.0
  0
LINE
  5
12A6
330
12A0
100
AcDbEntity
  8
Afmetingen
100
AcDbLine
 10
4.143666404233953
 20
1.839550624508888
 30
0.0
 11
0.0
 21
0.0000000000001137
 31
0.0
  0
MTEXT
  5
12A7
330
12A0
100
AcDbEntity
  8
Afmetingen
100
AcDbMText
 10
22.91264837253175
 20
40.23643018494681
 30
0.0
 40
15.0
 41
141.2514613503345
 71
     5
 72
     5
  1
{\fTahoma|b0|i0|c0|p34;Tiny APA LE-connector}
 11
0.9059132092114348
 21
-0.4234634073638939
 31
0.0
 73
     1
 44
1.0
  0
ENDBLK
  5
12A9
330
12A0
100
AcDbEntity
  8
0
100
AcDbBlockEnd
  0
BLOCK
  5
12B3
330
12AB
100
AcDbEntity
  8
0
100
AcDbBlockBegin
  2
A$C40503E2B
 70
     0
 10
0.0
 20
0.0
 30
0.0
  3
A$C40503E2B
  1

  0
HATCH
  5
12AC
330
12AB
100
AcDbEntity
  8
Afmetingen
100
AcDbHatch
 10
0.0
 20
0.0
 30
0.0
210
0.0
220
0.0
230
1.0
  2
SOLID
 70
     1
 71
     1
 91
        2
 92
        7
 72
     0
 73
     1
 93
        3
 10
-3.0
 20
-3.404759835552339
 10
0.0
 20
-3.404759835552396
 10
0.0
 20
0.0000000000006253
 97
        3
330
12AF
330
12B0
330
12B2
 92
        7
 72
     0
 73
     1
 93
        3
 10
0.0
 20
0.0
 10
0.0
 20
-3.404759835552396
 10
3.000000000000453
 20
-3.404759835552339
 97
        3
330
12B2
330
12AE
330
12AD
 75
     0
 76
     1
 47
0.0472268901666136
 98
        2
 10
-1.040286374132846
 20
-2.409246872176538
 10
1.371317523502511
 20
-2.409246872176538
450
        0
451
        0
460
0.0
461
0.0
452
        1
462
1.0
453
        2
463
0.0
 63
     5
421
      255
463
1.0
 63
     7
421
 16777215
470
LINEAR
  0
LINE
  5
12AD
102
{ACAD_REACTORS
330
12AC
102
}
330
12AB
100
AcDbEntity
  8
Afmetingen
100
AcDbLine
 10
3.0
 20
-3.404759835552339
 30
0.0
 11
0.0
 21
0.0
 31
0.0
  0
LINE
  5
12AE
102
{ACAD_REACTORS
330
12AC
102
}
330
12AB
100
AcDbEntity
  8
Afmetingen
100
AcDbLine
 10
0.0
 20
-3.404759835552339
 30
0.0
 11
3.0
 21
-3.404759835552339
 31
0.0
  0
LINE
  5
12AF
102
{ACAD_REACTORS
330
12AC
102
}
330
12AB
100
AcDbEntity
  8
Afmetingen
100
AcDbLine
 10
-3.0
 20
-3.404759835552339
 30
0.0
 11
0.0
 21
0.0
 31
0.0
  0
LINE
  5
12B0
102
{ACAD_REACTORS
330
12AC
102
}
330
12AB
100
AcDbEntity
  8
Afmetingen
100
AcDbLine
 10
0.0
 20
-3.404759835552339
 30
0.0
 11
-3.0
 21
-3.404759835552339
 31
0.0
  0
LINE
  5
12B1
330
12AB
100
AcDbEntity
  8
Afmetingen
100
AcDbLine
 10
3.000000000000453
 20
-3.404759835552339
 30
0.0
 11
-3.0
 21
-3.404759835552339
 31
0.0
  0
LINE
  5
12B2
102
{ACAD_REACTORS
330
12AC
102
}
330
12AB
100
AcDbEntity
  8
Afmetingen
100
AcDbLine
 10
0.0
 20
0.0
 30
0.0
 11
0.0000000000004547
 21
-16.64060900940876
 31
0.0
  0
ENDBLK
  5
12B4
330
12AB
100
AcDbEntity
  8
0
100
AcDbBlockEnd
  0
BLOCK
  5
12C6
330
12BE
100
AcDbEntity
  8
0
100
AcDbBlockBegin
  2
A$C47CD2A7A
 70
     0
 10
0.0
 20
0.0
 30
0.0
  3
A$C47CD2A7A
  1

  0
HATCH
  5
12BF
330
12BE
100
AcDbEntity
  8
Afmetingen
100
AcDbHatch
 10
0.0
 20
0.0
 30
0.0
210
0.0
220
0.0
230
1.0
  2
SOLID
 70
     1
 71
     1
 91
        2
 92
        7
 72
     0
 73
     1
 93
        3
 10
-2.999999999999998
 20
-3.404759835552339
 10
0.000000000000093
 20
-3.404759835552339
 10
0.0
 20
0.0
 97
        3
330
12C2
330
12C3
330
12C5
 92
        7
 72
     0
 73
     1
 93
        3
 10
0.0
 20
0.0
 10
0.000000000000093
 20
-3.404759835552339
 10
3.0
 20
-3.404759835552339
 97
        3
330
12C5
330
12C1
330
12C0
 75
     0
 76
     1
 47
0.0472268901666136
 98
        2
 10
-1.040286374132846
 20
-2.409246872176538
 10
1.371317523502511
 20
-2.409246872176538
450
        0
451
        0
460
0.0
461
0.0
452
        1
462
1.0
453
        2
463
0.0
 63
     5
421
      255
463
1.0
 63
     7
421
 16777215
470
LINEAR
  0
LINE
  5
12C0
102
{ACAD_REACTORS
330
12BF
102
}
330
12BE
100
AcDbEntity
  8
Afmetingen
100
AcDbLine
 10
3.0
 20
-3.404759835552339
 30
0.0
 11
0.0
 21
0.0
 31
0.0
  0
LINE
  5
12C1
102
{ACAD_REACTORS
330
12BF
102
}
330
12BE
100
AcDbEntity
  8
Afmetingen
100
AcDbLine
 10
0.0
 20
-3.404759835552339
 30
0.0
 11
3.0
 21
-3.404759835552339
 31
0.0
  0
LINE
  5
12C2
102
{ACAD_REACTORS
330
12BF
102
}
330
12BE
100
AcDbEntity
  8
Afmetingen
100
AcDbLine
 10
-3.0
 20
-3.404759835552339
 30
0.0
 11
0.0
 21
0.0
 31
0.0
  0
LINE
  5
12C3
102
{ACAD_REACTORS
330
12BF
102
}
330
12BE
100
AcDbEntity
  8
Afmetingen
100
AcDbLine
 10
0.0
 20
-3.404759835552339
 30
0.0
 11
-3.0
 21
-3.404759835552339
 31
0.0
  0
LINE
  5
12C4
330
12BE
100
AcDbEntity
  8
Afmetingen
100
AcDbLine
 10
3.000000000000453
 20
-3.404759835552339
 30
0.0
 11
-3.0
 21
-3.404759835552339
 31
0.0
  0
LINE
  5
12C5
102
{ACAD_REACTORS
330
12BF
102
}
330
12BE
100
AcDbEntity
  8
Afmetingen
100
AcDbLine
 10
0.0
 20
0.0
 30
0.0
 11
0.0000000000004547
 21
-16.64060900940876
 31
0.0
  0
ENDBLK
  5
12C7
330
12BE
100
AcDbEntity
  8
0
100
AcDbBlockEnd
  0
BLOCK
  5
175B
330
1749
100
AcDbEntity
  8
0
100
AcDbBlockBegin
  2
A$C349E6DD0
 70
     0
 10
0.0
 20
0.0
 30
0.0
  3
A$C349E6DD0
  1

  0
LINE
  5
174A
330
1749
100
AcDbEntity
  8
Layer2
100
AcDbLine
 10
0.0
 20
0.0
 30
0.0
 11
0.0
 21
793.0
 31
0.0
  0
ARC
  5
174B
330
1749
100
AcDbEntity
  8
Layer2
100
AcDbCircle
 10
-1642.544307752799
 20
-3303.603983597357
 30
0.0
 40
4459.60232054792
100
AcDbArc
 50
52.04989019330953
 51
54.4551679009811
  0
ARC
  5
174C
330
1749
100
AcDbEntity
  8
Layer2
100
AcDbCircle
 10
486.7047619044491
 20
-401.4523809526599
 30
0.0
 40
614.842539970127
100
AcDbArc
 50
102.8465739184418
 51
123.2044100986078
  0
ARC
  5
174D
330
1749
100
AcDbEntity
  8
Layer2
100
AcDbCircle
 10
598.4333333330182
 20
-580.8333333336118
 30
0.0
 40
826.133856520169
100
AcDbArc
 50
122.8751015538585
 51
135.3258357026006
  0
LINE
  5
174E
330
1749
100
AcDbEntity
  8
Layer2
100
AcDbLine
 10
10.95585480515774
 20
0.0
 30
0.0
 11
0.0
 21
0.0
 31
0.0
  0
ARC
  5
174F
330
1749
100
AcDbEntity
  8
Layer2
100
AcDbCircle
 10
-1691.80000000029
 20
-3328.000000000248
 30
0.0
 40
4509.193746114669
100
AcDbArc
 50
49.77826618353795
 51
51.74699958967676
  0
ARC
  5
1750
330
1749
100
AcDbEntity
  8
Layer2
100
AcDbCircle
 10
509.9914285711205
 20
-1363.528571428836
 30
0.0
 40
1620.17060637048
100
AcDbArc
 50
64.59763243441603
 51
76.07092057981803
  0
LINE
  5
1751
330
1749
100
AcDbEntity
  8
Layer2
100
AcDbLine
 10
1205.000000000266
 20
99.9999999994457
 30
0.0
 11
1219.999999999938
 21
114.9999999995072
 31
0.0
  0
ARC
  5
1752
330
1749
100
AcDbEntity
  8
Layer2
100
AcDbCircle
 10
562.0321428568289
 20
-1136.678571428837
 30
0.0
 40
1387.470032131772
100
AcDbArc
 50
75.90173168432558
 51
86.36491622738152
  0
ARC
  5
1753
330
1749
100
AcDbEntity
  8
Layer2
100
AcDbCircle
 10
621.1666666663553
 20
-674.166666666945
 30
0.0
 40
913.3488137374222
100
AcDbArc
 50
100.8014155381352
 51
107.2710713977458
  0
ARC
  5
1754
330
1749
100
AcDbEntity
  8
Layer2
100
AcDbCircle
 10
349.9999999996858
 20
197.9999999997214
 30
0.0
 40
0.0000000000004547
100
AcDbArc
 50
295.6931478368996
 51
90.0
  0
ARC
  5
1755
330
1749
100
AcDbEntity
  8
Layer2
100
AcDbCircle
 10
658.5666666663532
 20
-592.166666666945
 30
0.0
 40
840.2103400670306
100
AcDbArc
 50
90.58418984586124
 51
97.42415603555947
  0
ARC
  5
1756
330
1749
100
AcDbEntity
  8
Layer2
100
AcDbCircle
 10
732.1999999996847
 20
-1058.000000000284
 30
0.0
 40
1311.715609421499
100
AcDbArc
 50
97.98431816853442
 51
102.4236292749523
  0
ARC
  5
1757
330
1749
100
AcDbEntity
  8
Layer2
100
AcDbCircle
 10
-10802.49999998772
 20
-25684.49999996991
 30
0.0
 40
28606.96153907505
100
AcDbArc
 50
67.05466832141631
 51
67.75316544285928
  0
LINE
  5
1758
330
1749
100
AcDbEntity
  8
Layer2
100
AcDbLine
 10
0.0
 20
793.0
 30
0.0
 11
28.02363692440895
 21
793.0000000000029
 31
0.0
  0
ARC
  5
1759
330
1749
100
AcDbEntity
  8
Layer2
100
AcDbCircle
 10
-937.090666666725
 20
-2336.566666666469
 30
0.0
 40
3260.371457159653
100
AcDbArc
 50
59.8597857818681
 51
66.74848775458528
  0
ARC
  5
175A
330
1749
100
AcDbEntity
  8
Layer2
100
AcDbCircle
 10
-565.400000000272
 20
-1796.000000000216
 30
0.0
 40
2606.737071512891
100
AcDbArc
 50
54.4551679009811
 51
60.95905910169093
  0
ENDBLK
  5
175C
330
1749
100
AcDbEntity
  8
0
100
AcDbBlockEnd
  0
BLOCK
  5
17A1
330
178F
100
AcDbEntity
  8
0
100
AcDbBlockBegin
  2
A$C52A52698
 70
     0
 10
0.0
 20
0.0
 30
0.0
  3
A$C52A52698
  1

  0
LINE
  5
1790
330
178F
100
AcDbEntity
  8
Layer2
100
AcDbLine
 10
0.0
 20
-793.0
 30
0.0
 11
0.0
 21
0.0
 31
0.0
  0
ARC
  5
1791
330
178F
100
AcDbEntity
  8
Layer2
100
AcDbCircle
 10
-10802.49999998772
 20
-26477.49999996991
 30
0.0
 40
28606.96153907505
100
AcDbArc
 50
67.05466832141631
 51
67.75316544285896
  0
ARC
  5
1792
330
178F
100
AcDbEntity
  8
Layer2
100
AcDbCircle
 10
486.7047619044491
 20
-1194.45238095266
 30
0.0
 40
614.842539970127
100
AcDbArc
 50
102.8465739184423
 51
123.2044100986078
  0
ARC
  5
1793
330
178F
100
AcDbEntity
  8
Layer2
100
AcDbCircle
 10
598.4333333330182
 20
-1373.833333333612
 30
0.0
 40
826.133856520169
100
AcDbArc
 50
122.8751015538594
 51
135.3258357026017
  0
LINE
  5
1794
330
178F
100
AcDbEntity
  8
Layer2
100
AcDbLine
 10
10.95585480515774
 20
-793.0
 30
0.0
 11
0.0
 21
-793.0
 31
0.0
  0
ARC
  5
1795
330
178F
100
AcDbEntity
  8
Layer2
100
AcDbCircle
 10
-565.400000000272
 20
-2589.000000000216
 30
0.0
 40
2606.737071512891
100
AcDbArc
 50
54.455167900983
 51
60.95905910169133
  0
ARC
  5
1796
330
178F
100
AcDbEntity
  8
Layer2
100
AcDbCircle
 10
-1691.80000000029
 20
-4121.000000000247
 30
0.0
 40
4509.193746114669
100
AcDbArc
 50
49.77826618353951
 51
51.74699958967574
  0
ARC
  5
1797
330
178F
100
AcDbEntity
  8
Layer2
100
AcDbCircle
 10
509.9914285711205
 20
-2156.528571428836
 30
0.0
 40
1620.17060637048
100
AcDbArc
 50
64.59763243441637
 51
76.07092057981724
  0
LINE
  5
1798
330
178F
100
AcDbEntity
  8
Layer2
100
AcDbLine
 10
1205.000000000266
 20
-693.0000000005541
 30
0.0
 11
1219.999999999938
 21
-678.0000000004926
 31
0.0
  0
ARC
  5
1799
330
178F
100
AcDbEntity
  8
Layer2
100
AcDbCircle
 10
562.0321428568289
 20
-1929.678571428837
 30
0.0
 40
1387.470032131772
100
AcDbArc
 50
75.9017316843248
 51
86.36491622738146
  0
ARC
  5
179A
330
178F
100
AcDbEntity
  8
Layer2
100
AcDbCircle
 10
658.5666666663532
 20
-1385.166666666945
 30
0.0
 40
840.2103400670306
100
AcDbArc
 50
90.58418984586124
 51
97.42415603555924
  0
ARC
  5
179B
330
178F
100
AcDbEntity
  8
Layer2
100
AcDbCircle
 10
621.1666666663553
 20
-1467.166666666945
 30
0.0
 40
913.3488137374222
100
AcDbArc
 50
100.8014155381354
 51
107.2710713977458
  0
ARC
  5
179C
330
178F
100
AcDbEntity
  8
Layer2
100
AcDbCircle
 10
349.9999999996858
 20
-595.0000000002784
 30
0.0
 40
0.0000000000004547
100
AcDbArc
 50
295.6931478368985
 51
90.0
  0
ARC
  5
179D
330
178F
100
AcDbEntity
  8
Layer2
100
AcDbCircle
 10
732.1999999996847
 20
-1851.000000000285
 30
0.0
 40
1311.715609421499
100
AcDbArc
 50
97.98431816853451
 51
102.4236292749524
  0
ARC
  5
179E
330
178F
100
AcDbEntity
  8
Layer2
100
AcDbCircle
 10
-1642.544307752799
 20
-4096.603983597357
 30
0.0
 40
4459.60232054792
100
AcDbArc
 50
52.04989019330751
 51
54.455167900983
  0
ARC
  5
179F
330
178F
100
AcDbEntity
  8
Layer2
100
AcDbCircle
 10
-937.090666666725
 20
-3129.566666666468
 30
0.0
 40
3260.371457159653
100
AcDbArc
 50
59.85978578186688
 51
66.7484877545856
  0
LINE
  5
17A0
330
178F
100
AcDbEntity
  8
Layer2
100
AcDbLine
 10
0.0
 20
0.0
 30
0.0
 11
28.02363692440895
 21
0.0000000000029559
 31
0.0
  0
ENDBLK
  5
17A2
330
178F
100
AcDbEntity
  8
0
100
AcDbBlockEnd
  0
BLOCK
  5
199D
330
1980
100
AcDbEntity
  8
0
100
AcDbBlockBegin
  2
A$C288618C9
 70
     0
 10
0.0
 20
0.0
 30
0.0
  3
A$C288618C9
  1

  0
HATCH
  5
1981
330
1980
100
AcDbEntity
  8
Afmetingen
100
AcDbHatch
 10
0.0
 20
0.0
 30
0.0
210
0.0
220
0.0
230
1.0
  2
SOLID
 70
     1
 71
     0
 91
        2
 92
        7
 72
     1
 73
     1
 93
        4
 10
357.5006838832733
 20
659.7335728169717
 42
0.0
 10
354.7794578651202
 20
660.9964777849427
 42
0.0
 10
355.9404314800064
 20
657.1510727865723
 42
-0.0000177167263638
 10
356.250341959048
 20
657.006477654824
 42
0.0
 97
        0
 92
        7
 72
     1
 73
     1
 93
        4
 10
356.250341959048
 20
657.006477654824
 42
-0.0000175086611096
 10
356.5566027811137
 20
656.8635590717974
 42
0.0
 10
360.2334678371712
 20
658.495876625932
 42
0.0
 10
357.5006838832733
 20
659.7335728169715
 42
0.0
 97
        0
 75
     0
 76
     1
 47
0.1791203652383425
 98
        2
 10
356.4460057132878
 20
658.9923994941308
 10
357.7014283011508
 20
658.4550379478347
450
        0
451
        0
460
0.0
461
0.0
452
        1
462
1.0
453
        2
463
0.0
 63
     5
421
      255
463
1.0
 63
     7
421
 16777215
470
LINEAR
  0
LINE
  5
1982
330
1980
100
AcDbEntity
  8
Afmetingen
100
AcDbLine
 10
354.7794578651196
 20
660.9964777849426
 30
0.0
 11
356.0898014329378
 21
656.6563260014232
 31
0.0
  0
LINE
  5
1983
330
1980
100
AcDbEntity
  8
Afmetingen
100
AcDbLine
 10
357.5006838832728
 20
659.7335728169715
 30
0.0
 11
354.7794578651196
 21
660.9964777849426
 31
0.0
  0
LINE
  5
1984
330
1980
100
AcDbEntity
  8
Afmetingen
100
AcDbLine
 10
356.0898014329378
 20
656.6563260014232
 30
0.0
 11
363.0251420977952
 21
671.7828554799115
 31
0.0
  0
MTEXT
  5
1985
330
1980
100
AcDbEntity
  8
Afmetingen
100
AcDbMText
 10
379.0024498054695
 20
696.8927561863701
 30
0.0
 40
15.0
 41
141.2514613503345
 71
     5
 72
     5
  1
{\fTahoma|b0|i0|c0|p34;Tiny APA LE-connector}
 11
0.9059132092114348
 21
-0.4234634073638939
 31
0.0
 73
     1
 44
1.0
  0
LINE
  5
1986
330
1980
100
AcDbEntity
  8
Afmetingen
100
AcDbLine
 10
349.1544607680803
 20
641.529796522935
 30
0.0
 11
356.0898014329378
 21
656.6563260014232
 31
0.0
  0
LINE
  5
1987
330
1980
100
AcDbEntity
  8
Afmetingen
100
AcDbLine
 10
357.5006838832728
 20
659.7335728169715
 30
0.0
 11
360.2334678371717
 21
658.4958766259322
 31
0.0
  0
LINE
  5
1988
330
1980
100
AcDbEntity
  8
Afmetingen
100
AcDbLine
 10
360.2334678371717
 20
658.4958766259322
 30
0.0
 11
356.0898014329378
 21
656.6563260014234
 31
0.0
  0
MTEXT
  5
1989
330
1980
100
AcDbEntity
  8
Afmetingen
100
AcDbMText
 10
543.395923924018
 20
616.6124190176417
 30
0.0
 40
15.0
 41
141.2514613503345
 71
     5
 72
     5
  1
{\fTahoma|b0|i0|c0|p34;C-quad connector}
 11
0.8840793690049935
 21
-0.4673367835937301
 31
0.0
 73
     1
 44
1.0
  0
LINE
  5
198A
330
1980
100
AcDbEntity
  8
Afmetingen
100
AcDbLine
 10
517.4434133607483
 20
581.9459606309183
 30
0.0
 11
518.5395537817911
 21
577.546825040025
 31
0.0
  0
LINE
  5
198B
330
1980
100
AcDbEntity
  8
Afmetingen
100
AcDbLine
 10
518.5395537817911
 20
577.546825040025
 30
0.0
 11
526.2076349207336
 21
592.3154192807706
 31
0.0
  0
LINE
  5
198C
330
1980
100
AcDbEntity
  8
Afmetingen
100
AcDbLine
 10
520.0995003841979
 20
580.5512557431874
 30
0.0
 11
517.4434133607483
 21
581.9459606309183
 31
0.0
  0
LINE
  5
198D
330
1980
100
AcDbEntity
  8
Afmetingen
100
AcDbLine
 10
522.6832201860251
 20
579.3863756645338
 30
0.0
 11
518.5395537817911
 21
577.546825040025
 31
0.0
  0
LINE
  5
198E
330
1980
100
AcDbEntity
  8
Afmetingen
100
AcDbLine
 10
520.0995003841979
 20
580.5512557431874
 30
0.0
 11
522.768366475524
 21
579.181163123481
 31
0.0
  0
HATCH
  5
198F
330
1980
100
AcDbEntity
  8
Afmetingen
100
AcDbHatch
 10
0.0
 20
0.0
 30
0.0
210
0.0
220
0.0
230
1.0
  2
SOLID
 70
     1
 71
     0
 91
        2
 92
        7
 72
     1
 73
     1
 93
        4
 10
520.0995003841986
 20
580.5512557431876
 42
0.0
 10
517.4434133607483
 20
581.9459606309179
 42
0.0
 10
518.4146014814031
 20
578.048295564466
 42
-0.0000177167263639
 10
518.7170559175606
 20
577.8886911434928
 42
0.0
 97
        0
 92
        7
 72
     1
 73
     1
 93
        4
 10
522.768366475524
 20
579.181163123481
 42
0.0
 10
520.0995003841986
 20
580.5512557431873
 42
0.0
 10
518.717055917561
 20
577.8886911434932
 42
-0.0000175086611095
 10
519.0159472155381
 20
577.7309400595038
 42
0.0
 97
        0
 75
     0
 76
     1
 47
0.1791203652383425
 98
        2
 10
519.009777619186
 20
579.8626424757084
 10
520.2373666594926
 20
579.2644214014617
450
        0
451
        0
460
0.0
461
0.0
452
        1
462
1.0
453
        2
463
0.0
 63
     5
421
      255
463
1.0
 63
     7
421
 16777215
470
LINEAR
  0
LINE
  5
1990
330
1980
100
AcDbEntity
  8
Afmetingen
100
AcDbLine
 10
511.2528480295559
 20
562.1820253814425
 30
0.0
 11
518.5395537817903
 21
577.5468250400231
 31
0.0
  0
MTEXT
  5
1991
330
1980
100
AcDbEntity
  8
Afmetingen
100
AcDbMText
 10
879.9425855471149
 20
425.7851579069408
 30
0.0
 40
15.0
 41
141.2514613503345
 71
     5
 72
     5
  1
{\fTahoma|b0|i0|c0|p34;APA LE-connector}
 11
0.8473215169003374
 21
-0.5310802641764346
 31
0.0
 73
     1
 44
1.0
  0
LINE
  5
1992
330
1980
100
AcDbEntity
  8
Afmetingen
100
AcDbLine
 10
852.2809118084166
 20
388.6530750749043
 30
0.0
 11
861.0142070508597
 21
402.8178341060188
 31
0.0
  0
LINE
  5
1993
330
1980
100
AcDbEntity
  8
Afmetingen
100
AcDbLine
 10
851.5112186874413
 20
393.1209034365618
 30
0.0
 11
852.2809118084166
 21
388.6530750749043
 31
0.0
  0
LINE
  5
1994
330
1980
100
AcDbEntity
  8
Afmetingen
100
AcDbLine
 10
854.0575589244836
 20
391.5346653090355
 30
0.0
 11
851.5112186874413
 21
393.1209034365618
 31
0.0
  0
LINE
  5
1995
330
1980
100
AcDbEntity
  8
Afmetingen
100
AcDbLine
 10
856.4245782126507
 20
390.4926256994132
 30
0.0
 11
852.2809118084166
 21
388.6530750749045
 31
0.0
  0
LINE
  5
1996
330
1980
100
AcDbEntity
  8
Afmetingen
100
AcDbLine
 10
854.0575589244836
 20
391.5346653090355
 30
0.0
 11
856.6184534379685
 21
389.9720331415683
 31
0.0
  0
HATCH
  5
1997
330
1980
100
AcDbEntity
  8
Afmetingen
100
AcDbHatch
 10
0.0
 20
0.0
 30
0.0
210
0.0
220
0.0
230
1.0
  2
SOLID
 70
     1
 71
     0
 91
        2
 92
        7
 72
     1
 73
     1
 93
        4
 10
854.057558924484
 20
391.5346653090357
 42
0.0
 10
851.5112186874413
 20
393.1209034365616
 42
0.0
 10
852.1931722047929
 20
389.162376092193
 42
-0.0000177167263639
 10
852.4830717138421
 20
388.9809634912012
 42
0.0
 97
        0
 92
        7
 72
     1
 73
     1
 93
        4
 10
856.6184534379685
 20
389.9720331415683
 42
0.0
 10
854.057558924484
 20
391.5346653090353
 42
0.0
 10
852.483071713843
 20
388.9809634912017
 42
-0.0000175086611095
 10
852.7695540114606
 20
388.8016612166543
 42
0.0
 97
        0
 75
     0
 76
     1
 47
0.1791203652383425
 98
        2
 10
852.9201507223797
 20
390.928046385393
 10
854.1004277049742
 20
390.2411770019498
450
        0
451
        0
460
0.0
461
0.0
452
        1
462
1.0
453
        2
463
0.0
 63
     5
421
      255
463
1.0
 63
     7
421
 16777215
470
LINEAR
  0
LINE
  5
1998
330
1980
100
AcDbEntity
  8
Afmetingen
100
AcDbLine
 10
843.2763426100573
 20
374.2314884193427
 30
0.0
 11
852.2809118084166
 21
388.6530750749045
 31
0.0
  0
MTEXT
  5
1999
330
1980
100
AcDbEntity
  8
Afmetingen
100
AcDbMText
 10
577.1298171352186
 20
209.6555002850226
 30
0.0
 40
15.0
 41
141.2514613503345
 71
     5
 72
     5
  1
{\fTahoma|b0|i0|c0|p34;Jaco Sail-\Pconnector 3mm}
 11
0.9999737737747592
 21
-0.0072423589159015
 31
0.0
 73
     1
 44
1.0
  0
INSERT
  5
199A
330
1980
100
AcDbEntity
  8
Afmetingen
100
AcDbBlockReference
  2
A$C47CD2A7A
 10
572.0
 20
243.9367147902786
 30
0.0
  0
MTEXT
  5
199B
330
1980
100
AcDbEntity
  8
Afmetingen
100
AcDbMText
 10
402.9558479651289
 20
190.5132690354574
 30
0.0
 40
15.0
 41
141.2514613503345
 71
     5
 72
     5
  1
{\fTahoma|b0|i0|c0|p34;Sail \Pconnector 3mm}
 11
0.9999737737747592
 21
-0.0072423589159015
 31
0.0
 73
     1
 44
1.0
  0
LINE
  5
199C
330
1980
100
AcDbEntity
  8
Afmetingen
100
AcDbLine
 10
445.0964547271973
 20
225.9519636338035
 30
0.0
 11
445.0964547271977
 21
209.3113546243948
 31
0.0
  0
ENDBLK
  5
199E
330
1980
100
AcDbEntity
  8
0
100
AcDbBlockEnd
  0
BLOCK
  5
19CF
330
19CC
100
AcDbEntity
  8
0
100
AcDbBlockBegin
  2
A$C569B1741
 70
     0
 10
0.0
 20
0.0
 30
0.0
  3
A$C569B1741
  1

  0
LWPOLYLINE
  5
19CD
330
19CC
100
AcDbEntity
  8
Vlak7
100
AcDbPolyline
 90
       10
 70
     0
 43
0.0
 10
149.9999950064596
 20
120.9999989371189
 42
-0.0982661981074463
 10
449.4848631168205
 20
233.3315996222852
 42
-0.056326858379618
 10
674.3450704010424
 20
254.2382342200998
 10
675.460259851415
 20
265.700421731405
 10
302.6583515563407
 20
331.600480867853
 42
-0.3709252928620619
 10
291.618235020444
 20
267.3300185058247
 10
7.999995006699464
 20
17.698739697685
 10
-0.0000049933005357
 20
-0.0000010626717994
 10
79.55390735295543
 20
70.02068897554329
 42
-0.0263327243695776
 10
149.9999950065762
 20
120.9999989371941
  0
LWPOLYLINE
  5
19CE
330
19CC
100
AcDbEntity
  8
Vlak7
100
AcDbPolyline
 90
        6
 70
     1
 43
0.0
 10
145.7214586337106
 20
127.7601665873692
 42
-0.0982378457220957
 10
448.0200326359687
 20
241.1981531168159
 42
-0.0497488583709327
 10
648.0818873706275
 20
262.4160582002521
 10
315.7299070272742
 20
321.1657981329324
 42
-0.2943094054094126
 10
296.8128705824707
 20
261.2447541868859
 10
143.5688122858612
 20
126.3644649626178
 42
-0.0007689164358318
  0
ENDBLK
  5
19D0
330
19CC
100
AcDbEntity
  8
0
100
AcDbBlockEnd
  0
BLOCK
  5
19D5
330
19D2
100
AcDbEntity
  8
0
100
AcDbBlockBegin
  2
A$C7EAE5BF8
 70
     0
 10
0.0
 20
0.0
 30
0.0
  3
A$C7EAE5BF8
  1

  0
LWPOLYLINE
  5
19D3
330
19D2
100
AcDbEntity
  8
Vlak1
100
AcDbPolyline
 90
        5
 70
     1
 43
0.0
 10
-331.5730992610279
 20
302.6751774430377
 42
-0.3707371441205123
 10
-267.3300195684969
 20
291.618240013745
 10
-17.69874076035694
 20
8.0
 10
-782.1201919727533
 20
8.0
 10
-772.1925521788659
 20
32.00716069857208
  0
LWPOLYLINE
  5
19D4
330
19D2
100
AcDbEntity
  8
Vlak1
100
AcDbPolyline
 90
        5
 70
     1
 43
0.0
 10
-335.7235579986554
 20
309.5144440927097
 42
-0.3703262260007638
 10
-261.2447688982811
 20
296.81289108275
 10
0.0
 20
0.0
 10
-794.0854592913892
 20
0.0
 10
-778.5928917842111
 20
37.46434857631584
  0
ENDBLK
  5
19D6
330
19D2
100
AcDbEntity
  8
0
100
AcDbBlockEnd
  0
BLOCK
  5
19F6
330
19F1
100
AcDbEntity
  8
0
100
AcDbBlockBegin
  2
A$C5E135D46
 70
     0
 10
0.0
 20
0.0
 30
0.0
  3
A$C5E135D46
  1

  0
LWPOLYLINE
  5
19F2
330
19F1
100
AcDbEntity
  8
Vlak3
100
AcDbPolyline
 90
        6
 70
     1
 43
0.0
 10
19.85708555971223
 20
384.4468002338544
 10
143.6130078945775
 20
183.226971706516
 10
403.2301439491916
 20
131.5577610952925
 42
0.6890546671745394
 10
418.1344320348252
 20
155.3006176540021
 10
361.2044743535857
 20
230.7946919704289
 42
0.1325419636666349
 10
332.4179063664092
 20
253.1882388717888
  0
LWPOLYLINE
  5
19F3
330
19F1
100
AcDbEntity
  8
Vlak3
100
AcDbPolyline
 90
        6
 70
     1
 43
0.0
 10
0.0000113001274258
 20
401.4624821398397
 10
138.62754985331
 20
176.0622830175732
 10
401.6686029403016
 20
123.7116416928393
 42
0.6890546676998124
 10
424.5218447037423
 20
160.1173550764652
 10
367.5918870225032
 20
235.6114293928913
 42
0.1325419636666347
 10
335.5154255510779
 20
260.5642387972639
  0
LWPOLYLINE
  5
19F4
330
19F1
100
AcDbEntity
  8
Vlak4
100
AcDbPolyline
 90
        9
 70
     1
 43
0.0
 10
149.3294442645151
 20
173.9323834197932
 10
401.6686029715718
 20
123.7116416866162
 42
0.6890546671886874
 10
424.5218447037419
 20
160.1173550764667
 10
402.938408728793
 20
188.7388679997683
 10
573.6160903695532
 20
127.5345121254964
 10
616.4964773111742
 20
74.83440017899534
 42
-0.6949735230591589
 10
577.531083337878
 20
8.589013390654654
 10
210.4316941796828
 20
73.71833618475363
 42
0.0288423821673534
 10
207.323348844729
 20
79.63771602047724
  0
LWPOLYLINE
  5
19F5
330
19F1
100
AcDbEntity
  8
Vlak4
100
AcDbPolyline
 90
        9
 70
     1
 43
0.0
 10
132.9111134687687
 20
185.3568713280422
 10
403.2301439282328
 20
131.5577610994642
 42
0.6890546676998372
 10
418.1344320348235
 20
155.3006176540057
 10
380.4677330008399
 20
205.2499359382
 10
578.058804778122
 20
134.7529243121553
 10
622.7019764704646
 20
79.88333869952064
 42
-0.692583443788124
 10
576.4437888063435
 20
0.6569865475415213
 10
204.6856748115115
 20
66.61284189019614
 42
0.0491861910471796
 10
200.4868495423298
 20
75.48271121683626
  0
ENDBLK
  5
19F7
330
19F1
100
AcDbEntity
  8
0
100
AcDbBlockEnd
  0
BLOCK
  5
1E1D
330
1E1B
100
AcDbEntity
  8
0
100
AcDbBlockBegin
  2
A$C4FFE7409
 70
     0
 10
0.0
 20
0.0
 30
0.0
  3
A$C4FFE7409
  1

  0
LINE
  5
1E1C
330
1E1B
100
AcDbEntity
  8
Afdruklaag
100
AcDbLine
 10
0.0
 20
0.0
 30
0.0
 11
261.3290945868716
 21
-52.00992597117657
 31
0.0
  0
ENDBLK
  5
1E1E
330
1E1B
100
AcDbEntity
  8
0
100
AcDbBlockEnd
  0
BLOCK
  5
F37
330
F36
100
AcDbEntity
  8
0
100
AcDbBlockBegin
  2
*Paper_Space32
 70
     0
 10
0.0
 20
0.0
 30
0.0
  3
*Paper_Space32
  1

  0
VIEWPORT
  5
F38
330
F36
100
AcDbEntity
  8
0
100
AcDbViewport
 10
168.8047710103324
 20
122.7322543484139
 30
0.0
 40
557.2257797076737
 41
270.1807216867599
 69
     1
 12
168.8047710103324
 22
122.7322543484139
 13
0.0
 23
0.0
 14
10.0
 24
10.0
 15
10.0
 25
10.0
 16
0.0
 26
0.0
 36
1.0
 17
0.0
 27
0.0
 37
0.0
 42
50.0
 43
0.0
 44
0.0
 45
270.1807216867599
 50
0.0
 51
0.0
 72
  1000
 90
    32800
  1

281
     0
 71
     1
 74
     0
110
0.0
120
0.0
130
0.0
111
1.0
121
0.0
131
0.0
112
0.0
122
1.0
132
0.0
 79
     0
146
0.0
170
     0
  0
VIEWPORT
  5
F39
330
F36
100
AcDbEntity
  8
Vieuwports
100
AcDbViewport
 10
143.8993272985268
 20
98.18158049921876
 30
0.0
 40
284.5264821757025
 41
193.9199916748989
 69
     2
 12
5585.085357654198
 22
363.3802059623676
 13
0.0
 23
0.0
 14
10.0
 24
10.0
 15
10.0
 25
10.0
 16
0.0
 26
0.0
 36
1.0
 17
0.0
 27
0.0
 37
0.0
 42
50.0
 43
0.0
 44
0.0
 45
193.9199975683164
 50
0.0
 51
0.0
 72
  1000
 90
    32864
  1

281
     0
 71
     1
 74
     0
110
0.0
120
0.0
130
0.0
111
1.0
121
0.0
131
0.0
112
0.0
122
1.0
132
0.0
 79
     0
146
0.0
170
     0
  0
ENDBLK
  5
F3A
330
F36
100
AcDbEntity
  8
0
100
AcDbBlockEnd
  0
BLOCK
  5
2A92
330
2A90
100
AcDbEntity
  8
0
100
AcDbBlockBegin
  2
A$C63556863
 70
     0
 10
0.0
 20
0.0
 30
0.0
  3
A$C63556863
  1

  0
LINE
  5
2A91
330
2A90
100
AcDbEntity
  8
Vlak1
 62
     7
370
    30
100
AcDbLine
 10
-0.0000208848314287
 20
228.1536410411729
 30
0.0
 11
409.5008456038167
 21
-0.0000019019405499
 31
0.0
  0
ENDBLK
  5
2A93
330
2A90
100
AcDbEntity
  8
0
100
AcDbBlockEnd
  0
BLOCK
  5
2E4A
330
2E45
100
AcDbEntity
  8
0
100
AcDbBlockBegin
  2
A$C59272694
 70
     0
 10
0.0
 20
0.0
 30
0.0
  3
A$C59272694
  1

  0
ARC
  5
2E46
330
2E45
100
AcDbEntity
  8
0
370
    30
100
AcDbCircle
 10
-19285.48406592484
 20
-42771.07365044698
 30
0.0
 40
47283.88068131386
100
AcDbArc
 50
65.53366852098273
 51
65.92915370668724
  0
ARC
  5
2E47
330
2E45
100
AcDbEntity
  8
0
100
AcDbCircle
 10
-2213.858318410478
 20
-2276.684990786363
 30
0.0
 40
3492.890594088606
100
AcDbArc
 50
41.73672809852882
 51
50.63941359832931
  0
ARC
  5
2E48
330
2E45
100
AcDbEntity
  8
0
370
    30
100
AcDbCircle
 10
1070.518150477842
 20
-767.720198731286
 30
0.0
 40
1069.094935873447
100
AcDbArc
 50
123.2573121812235
 51
134.1019249152992
  0
ARC
  5
2E49
330
2E45
100
AcDbEntity
  8
0
370
    30
100
AcDbCircle
 10
2124.308631711725
 20
-2126.961803686944
 30
0.0
 40
2786.932943816596
100
AcDbArc
 50
124.3286974962022
 51
125.8689256380741
  0
ENDBLK
  5
2E4B
330
2E45
100
AcDbEntity
  8
0
100
AcDbBlockEnd
  0
BLOCK
  5
3024
330
3017
100
AcDbEntity
  8
0
100
AcDbBlockBegin
  2
A$C5B3A3F0F
 70
     0
 10
0.0
 20
0.0
 30
0.0
  3
A$C5B3A3F0F
  1

  0
LINE
  5
3018
330
3017
100
AcDbEntity
  8
Afdruklaag
 62
     7
100
AcDbLine
 10
280.0000000000018
 20
0.0
 30
0.0
 11
280.0000000000018
 21
-20.0
 31
0.0
  0
LINE
  5
3019
330
3017
100
AcDbEntity
  8
Afdruklaag
 62
     7
100
AcDbLine
 10
280.0000000000018
 20
0.0
 30
0.0
 11
280.0000000000018
 21
-20.0
 31
0.0
  0
MTEXT
  5
301A
330
3017
100
AcDbEntity
  8
Afdruklaag
 62
     7
100
AcDbMText
 10
12.00203430117108
 20
-7.192176543954701
 30
0.0
 40
15.0
 41
83.51930225920114
 71
     1
 72
     5
  1
{\fTahoma|b0|i0|c0|p34;18}
 73
     1
 44
1.0
  0
LINE
  5
301B
330
3017
100
AcDbEntity
  8
Afdruklaag
 62
     7
100
AcDbLine
 10
0.0
 20
0.0
 30
0.0
 11
0.0
 21
-20.0
 31
0.0
  0
LINE
  5
301C
330
3017
100
AcDbEntity
  8
Afdruklaag
 62
     7
100
AcDbLine
 10
0.0
 20
0.0
 30
0.0
 11
0.0
 21
-20.0
 31
0.0
  0
LINE
  5
301D
330
3017
100
AcDbEntity
  8
Afdruklaag
 62
     7
100
AcDbLine
 10
260.0000000000018
 20
-190.0
 30
0.0
 11
280.0000000000018
 21
-190.0
 31
0.0
  0
LINE
  5
301E
330
3017
100
AcDbEntity
  8
Afdruklaag
 62
     7
100
AcDbLine
 10
280.0000000000018
 20
-190.0
 30
0.0
 11
280.0000000000018
 21
-170.0
 31
0.0
  0
LINE
  5
301F
330
3017
100
AcDbEntity
  8
Afdruklaag
 62
     7
100
AcDbLine
 10
280.0000000000018
 20
-190.0
 30
0.0
 11
280.0000000000018
 21
-170.0
 31
0.0
  0
LINE
  5
3020
330
3017
100
AcDbEntity
  8
Afdruklaag
 62
     7
100
AcDbLine
 10
-20.0
 20
-190.0
 30
0.0
 11
0.0
 21
-190.0
 31
0.0
  0
LINE
  5
3021
330
3017
100
AcDbEntity
  8
Afdruklaag
 62
     7
100
AcDbLine
 10
20.0
 20
-190.0
 30
0.0
 11
0.0
 21
-190.0
 31
0.0
  0
LINE
  5
3022
330
3017
100
AcDbEntity
  8
Afdruklaag
 62
     7
100
AcDbLine
 10
0.0
 20
-190.0
 30
0.0
 11
0.0
 21
-170.0
 31
0.0
  0
LINE
  5
3023
330
3017
100
AcDbEntity
  8
Afdruklaag
 62
     7
100
AcDbLine
 10
0.0
 20
-190.0
 30
0.0
 11
0.0
 21
-170.0
 31
0.0
  0
ENDBLK
  5
3025
330
3017
100
AcDbEntity
  8
0
100
AcDbBlockEnd
  0
BLOCK
  5
30E7
330
30E4
100
AcDbEntity
  8
0
100
AcDbBlockBegin
  2
A$C5E992616
 70
     0
 10
0.0
 20
0.0
 30
0.0
  3
A$C5E992616
  1

  0
LWPOLYLINE
  5
30E5
330
30E4
100
AcDbEntity
  8
0
100
AcDbPolyline
 90
        6
 70
     1
 43
0.0
 10
134.6662765529094
 20
370.2887353251997
 42
-0.03746690023318
 10
297.5665465636197
 20
615.9012607197539
 42
-0.0095519122216028
 10
388.3098987938737
 20
518.4785099154546
 42
0.0172141750428935
 10
333.7296275148017
 20
469.1139860566558
 42
0.0947621175339128
 10
8.064325106930906
 20
14.75660525439775
 10
8.002914790407762
 20
32.32696464495842
 42
-0.0747850949110105
  0
LWPOLYLINE
  5
30E6
330
30E4
100
AcDbEntity
  8
0
100
AcDbPolyline
 90
        7
 70
     1
 43
0.0
 10
127.6815922025171
 20
374.1892883719473
 42
-0.0386335768797939
 10
296.9123121163893
 20
628.0635474279148
 42
-0.0108024298202748
 10
399.7831078178684
 20
517.6498268951887
 42
0.0191641349054902
 10
339.2689579795697
 20
463.3418681831691
 42
0.0969055062380504
 10
10.11585219380208
 20
-0.0000028580861908
 10
0.1158521938023682
 20
-0.0000028580868729
 10
-0.0000174817654965
 20
33.15194875954171
 42
-0.0749636062157506
  0
ENDBLK
  5
30E8
330
30E4
100
AcDbEntity
  8
0
100
AcDbBlockEnd
  0
BLOCK
  5
3104
330
3101
100
AcDbEntity
  8
0
100
AcDbBlockBegin
  2
A$C67E5556B
 70
     0
 10
0.0
 20
0.0
 30
0.0
  3
A$C67E5556B
  1

  0
ARC
  5
3102
330
3101
100
AcDbEntity
  8
Layer1
100
AcDbCircle
 10
1348.696013380024
 20
-609.5148377389056
 30
0.0
 40
1480.030148454951
100
AcDbArc
 50
133.5404335589131
 51
155.6804092129364
  0
ARC
  5
3103
330
3101
100
AcDbEntity
  8
Layer1
100
AcDbCircle
 10
1067.608265193408
 20
-298.6334917269565
 30
0.0
 40
1061.094935873434
100
AcDbArc
 50
129.7103662908041
 51
134.1019249153056
  0
ENDBLK
  5
3105
330
3101
100
AcDbEntity
  8
0
100
AcDbBlockEnd
  0
BLOCK
  5
311F
330
311C
100
AcDbEntity
  8
0
100
AcDbBlockBegin
  2
A$C3FAC71DD
 70
     0
 10
0.0
 20
0.0
 30
0.0
  3
A$C3FAC71DD
  1

  0
ARC
  5
311D
330
311C
100
AcDbEntity
  8
Layer1
100
AcDbCircle
 10
1061.245303701158
 20
-1225.416107632453
 30
0.0
 40
1480.030148454951
100
AcDbArc
 50
133.5404335589136
 51
155.680409212938
  0
ARC
  5
311E
330
311C
100
AcDbEntity
  8
Layer1
100
AcDbCircle
 10
780.1575555145427
 20
-914.5347616205039
 30
0.0
 40
1061.094935873434
100
AcDbArc
 50
129.7103662908076
 51
134.1019249153015
  0
ENDBLK
  5
3120
330
311C
100
AcDbEntity
  8
0
100
AcDbBlockEnd
  0
BLOCK
  5
3183
330
317F
100
AcDbEntity
  8
0
100
AcDbBlockBegin
  2
A$C06E93DA4
 70
     0
 10
0.0
 20
0.0
 30
0.0
  3
A$C06E93DA4
  1

  0
LWPOLYLINE
  5
3180
330
317F
100
AcDbEntity
  8
0
370
    30
100
AcDbPolyline
 90
        6
 70
     1
 43
0.0
 10
258.500100344871
 20
-225.6028768892511
 42
0.0061520790111542
 10
-247.506548937486
 20
-104.7869706271326
 42
-0.0011086956630721
 10
-241.7989272101893
 20
-101.5966949941389
 42
-0.0442113588656769
 10
-10.69230230541302
 20
-3.418381521080617
 42
-0.0075202200489311
 10
100.8981482541408
 20
-64.08598458399295
 10
504.2998729819764
 20
-290.6278992031216
 42
0.0175104265910149
  0
LWPOLYLINE
  5
3181
330
317F
100
AcDbEntity
  8
0
370
    30
100
AcDbPolyline
 90
        8
 70
     0
 43
0.0
 10
256.636174538778
 20
-233.3832568779119
 42
0.0063969627482164
 10
-269.3722640980245
 20
-108.0614905246107
 42
-0.0046058885762384
 10
-245.6258863593705
 20
-94.57108501302924
 42
-0.0448130463527341
 10
-9.954203321380646
 20
5.226111418483696
 42
-0.0077185020584527
 10
104.8199429863561
 20
-57.11321226980885
 10
541.2811640025786
 20
-302.2206439069121
 10
537.3076366468243
 20
-309.1634189310286
 42
0.0200679802126318
 10
256.6361745379559
 20
-233.3832568777004
  0
LWPOLYLINE
  5
3182
330
317F
100
AcDbEntity
  8
0
370
    30
100
AcDbPolyline
 90
        8
 70
     0
 43
0.0
 10
-400.4153197815066
 20
-266.9021951980778
 42
-0.0889913609941053
 10
-35.82562412673907
 20
-201.3717986020903
 42
-0.0502777313838974
 10
245.2699345186511
 20
-230.818400855729
 10
247.2234508553102
 20
-223.0605806771995
 42
0.0061537139160454
 10
-258.9175257082743
 20
-102.2120132995068
 42
0.0889515274272592
 10
-641.1551367817811
 20
-414.3994584277159
 42
-0.062676219362963
 10
-531.0243587782395
 20
-329.3994584276382
 42
-0.0609447476021874
 10
-400.4153197813043
 20
-266.902195198008
  0
ENDBLK
  5
3184
330
317F
100
AcDbEntity
  8
0
100
AcDbBlockEnd
  0
BLOCK
  5
3281
330
327F
100
AcDbEntity
  8
0
100
AcDbBlockBegin
  2
A$C6BC67F49
 70
     0
 10
0.0
 20
0.0
 30
0.0
  3
A$C6BC67F49
  1

  0
ARC
  5
3280
330
327F
100
AcDbEntity
  8
Vlak10
100
AcDbCircle
 10
-3529.090170933184
 20
-6576.344339239284
 30
0.0
 40
7463.429660874536
100
AcDbArc
 50
61.7804792334476
 51
67.97157982845726
  0
ENDBLK
  5
3282
330
327F
100
AcDbEntity
  8
0
100
AcDbBlockEnd
  0
BLOCK
  5
3374
330
3359
100
AcDbEntity
  8
0
100
AcDbBlockBegin
  2
A$C438A02A6
 70
     0
 10
0.0
 20
0.0
 30
0.0
  3
A$C438A02A6
  1

  0
LINE
  5
335A
330
3359
100
AcDbEntity
  8
Vlak8
370
    30
100
AcDbLine
 10
1298.210098575921
 20
-644.4200413440985
 30
0.0
 11
861.6301174554136
 21
-399.2459165330294
 31
0.0
  0
LWPOLYLINE
  5
335B
330
3359
100
AcDbEntity
  8
Vlak10
370
    30
100
AcDbPolyline
 90
        5
 70
     1
 43
0.0
 10
945.0106153368547
 20
-570.4098447033386
 42
-0.0247204657917211
 10
1252.488616850045
 20
-647.416225097927
 10
849.3862110984904
 20
-421.0424017134461
 42
0.0064681001456477
 10
737.9634294707373
 20
-360.3171657171757
 42
0.0441274489164116
 10
507.2649073249395
 20
-458.2420136716453
 42
-0.0058746924128157
  0
LWPOLYLINE
  5
335C
330
3359
100
AcDbEntity
  8
Vlak10
370
    30
100
AcDbPolyline
 90
        7
 70
     1
 43
0.0
 10
943.1915336013803
 20
-578.2048508299062
 42
-0.0276578891755406
 10
1285.79195552181
 20
-666.1177335261188
 10
1289.765482877564
 20
-659.1749585020025
 10
853.3042618613418
 20
-414.0675268648991
 42
0.0066397761521376
 10
738.716359936443
 20
-351.6683529845504
 42
0.0448472999404103
 10
502.8584325156147
 20
-451.5253996081193
 42
0.0033269332858209
 10
485.6808654015174
 20
-461.2260049693817
 42
-0.0061417019758876
  0
LWPOLYLINE
  5
335D
330
3359
100
AcDbEntity
  8
Vlak5
100
AcDbPolyline
 90
        7
 70
     1
 43
0.0
 10
7.00411851850913
 20
-878.4830504700385
 10
6.924257070747443
 20
-855.6335616858653
 42
-0.0747850949110174
 10
133.5876188332652
 20
-517.6717910055949
 42
-0.0374669002331757
 10
296.4878888439594
 20
-272.0592656110696
 42
-0.0095519122216025
 10
387.2312410742102
 20
-369.4820164153655
 42
0.0172269979974528
 10
332.6116032830687
 20
-418.8846907996398
 42
0.0929506290743761
 10
18.62856244294835
 20
-866.3921036226694
  0
LWPOLYLINE
  5
335E
330
3359
100
AcDbEntity
  8
Vlak7
370
    30
100
AcDbPolyline
 90
        7
 70
     1
 43
0.0
 10
499.8147402438512
 20
-295.4666030403986
 10
593.5188085743184
 20
-338.9627122041205
 10
669.4236652431174
 20
-375.9154204584874
 42
0.0320046531468899
 10
502.8256346851604
 20
-451.5444333628708
 42
0.014169776285404
 10
430.5911992527279
 20
-494.428823062211
 42
0.0121746678794678
 10
342.6635493006479
 20
-420.3193809534935
 42
-0.0454089793173457
 10
496.0605580741271
 20
-298.1916160469195
 42
-0.000417329330796
  0
LWPOLYLINE
  5
335F
330
3359
100
AcDbEntity
  8
Vlak7
370
    30
100
AcDbPolyline
 90
        7
 70
     1
 43
0.0
 10
498.9276048651611
 20
-286.2349440031827
 10
596.9541085965554
 20
-331.7374668200324
 10
689.7347310068141
 20
-376.9057923007673
 42
0.0352723709596682
 10
506.6525938343469
 20
-458.5700433439776
 42
0.0151782521826969
 10
429.7914448539216
 20
-504.4159975135324
 42
0.0137803692126537
 10
330.5538716657647
 20
-420.8847205821693
 42
-0.0474674961711983
 10
491.5079046229281
 20
-291.6106869055887
 42
-0.0008219125093513
  0
LWPOLYLINE
  5
3360
330
3359
100
AcDbEntity
  8
Vlak5
100
AcDbPolyline
 90
       10
 70
     0
 43
0.0
 10
9.037194474141642
 20
-887.9605291889097
 10
-0.9628055258581298
 20
-887.9605291889104
 10
-1.078675201425993
 20
-854.8085775712817
 42
-0.0749636062157506
 10
126.6029344828566
 20
-513.771237958876
 42
-0.0386335768797939
 10
295.8336543967288
 20
-259.8969789029086
 42
-0.0108024298202748
 10
398.7044500982079
 20
-370.3106994356348
 42
0.0191641349054902
 10
338.1903002599092
 20
-424.6186581476543
 42
0.0931819330544212
 10
25.34660097417918
 20
-870.9474195796586
 10
9.041858577976654
 20
-887.9064909084862
 10
0.2872450394042971
 20
-887.9064909084902
  0
LWPOLYLINE
  5
3361
330
3359
100
AcDbEntity
  8
Vlak3
100
AcDbPolyline
 90
        6
 70
     0
 43
0.0
 10
6.000437153975781
 20
-599.8821871012831
 10
7.961046194890967
 20
-11.69947482919724
 42
-0.0139836204952377
 10
122.8046383469636
 20
-189.0430999266896
 42
-0.0581556648714767
 10
125.6250031287645
 20
-515.531673038464
 42
0.0660043944727085
 10
6.773020802652126
 20
-821.0893733998073
 10
6.000450409625044
 20
-600.0460662069509
  0
LWPOLYLINE
  5
3362
330
3359
100
AcDbEntity
  8
Vlak4
100
AcDbPolyline
 90
        3
 70
     1
 43
0.0
 10
223.0574241472184
 20
-358.8537768702979
 42
0.0083610620624916
 10
132.7049832353998
 20
-204.8285782715609
 42
-0.0511883883814061
 10
135.3561895302794
 20
-498.2505320591867
 42
-0.0208314698609822
  0
LWPOLYLINE
  5
3363
330
3359
100
AcDbEntity
  8
Vlak4
100
AcDbPolyline
 90
        4
 70
     0
 43
0.0
 10
232.4834479637395
 20
-359.2837880770851
 42
0.0103237301445297
 10
120.1899944875297
 20
-169.1596658646269
 42
-0.06451047965793
 10
123.2246204687592
 20
-536.3256201790878
 42
-0.0264287729906184
 10
232.4834479635922
 20
-359.2837880768254
  0
LWPOLYLINE
  5
3364
330
3359
100
AcDbEntity
  8
Vlak3
100
AcDbPolyline
 90
        6
 70
     0
 43
0.0
 10
-1.999518401949899
 20
-599.8555205827632
 10
0.0529656805133527
 20
15.8897041541079
 42
-0.0112520645759759
 10
130.5280622445289
 20
-186.3326322080246
 42
-0.0582370128463661
 10
133.587618833249
 20
-517.6717910056238
 42
0.0843186513323058
 10
-0.9617684064573948
 20
-896.9839089502164
 10
-1.999500727682288
 20
-600.0740269060233
  0
LWPOLYLINE
  5
3365
330
3359
100
AcDbEntity
  8
Vlak9
370
    30
100
AcDbPolyline
 90
        5
 70
     1
 43
0.0
 10
876.9934430190181
 20
-560.5339152898973
 42
0.0290795504835656
 10
712.6364742889212
 20
-550.3248021239305
 42
0.0521815774764038
 10
493.8383790471203
 20
-573.2896133238567
 42
0.1166897573966804
 10
155.406888007187
 20
-732.4202774875543
 42
-0.0782145079674767
 10
497.2138849557333
 20
-464.0281687146555
 42
-0.0050891245203787
  0
LWPOLYLINE
  5
3366
330
3359
100
AcDbEntity
  8
Vlak9
370
    30
100
AcDbPolyline
 90
        7
 70
     1
 43
0.0
 10
943.5214405814488
 20
-578.2884643264972
 42
0.0411937614635124
 10
712.6221398743922
 20
-558.3248070433841
 42
0.0521791404381773
 10
495.4905633934286
 20
-581.1171500205722
 42
0.135292073807509
 10
115.6766648811167
 20
-776.9923015097076
 10
110.0013012357262
 20
-771.3524668690102
 42
-0.089425523218384
 10
496.0580847471087
 20
-455.5138433429348
 42
-0.0060224558004709
 10
945.4749626043676
 20
-570.5306215666582
  0
LWPOLYLINE
  5
3367
330
3359
100
AcDbEntity
  8
Vlak6
370
    30
100
AcDbPolyline
 90
        4
 70
     1
 43
0.0
 10
336.8685438701484
 20
-425.911263220876
 42
-0.01200499237865
 10
423.3326676437559
 20
-498.6750216053245
 42
0.0735559000379106
 10
112.7179218383298
 20
-768.5268250125865
 10
35.66768157962111
 20
-848.6691841310667
 42
-0.088670110483544
  0
LWPOLYLINE
  5
3368
330
3359
100
AcDbEntity
  8
Vlak6
370
    30
100
AcDbPolyline
 90
        5
 70
     1
 43
0.0
 10
332.6116032830673
 20
-418.8846907996397
 42
-0.0012185148454546
 10
336.3622852862857
 20
-415.2673608286254
 42
-0.0138786734300138
 10
436.5919330436866
 20
-499.7458723771019
 42
0.0755025456576727
 10
118.6434161825655
 20
-773.9064909085
 10
9.07367574831278
 20
-887.8733968768178
 42
-0.096949662096288
  0
LINE
  5
3369
330
3359
100
AcDbEntity
  8
Vlak8
100
AcDbLine
 10
1285.79195552181
 20
-666.1177335261189
 30
0.0
 11
1298.210098575921
 21
-644.4200413440985
 31
0.0
  0
ARC
  5
336A
330
3359
100
AcDbEntity
  8
Vlak8
370
    30
100
AcDbCircle
 10
-2780.555721828427
 20
-6933.205519203544
 30
0.0
 40
7480.429660882464
100
AcDbArc
 50
63.60151952237566
 51
68.26634267194794
  0
LWPOLYLINE
  5
336B
330
3359
100
AcDbEntity
  8
Vlak1
370
    30
100
AcDbPolyline
 90
        4
 70
     1
 43
0.0
 10
393.3255251047556
 20
-364.2953206320492
 42
0.0331211008490953
 10
62.71374456980424
 20
-41.23554177230334
 42
-0.0175564662145376
 10
539.2542660930351
 20
-257.7060568065392
 42
0.0052465570215777
 10
491.5905198747276
 20
-291.5990172134342
 42
0.0283399784354278
  0
LWPOLYLINE
  5
336C
330
3359
100
AcDbEntity
  8
Vlak1
370
    30
100
AcDbPolyline
 90
        4
 70
     1
 43
0.0
 10
392.5246731261304
 20
-375.4011498705076
 42
0.0373204003270037
 10
18.72637732620023
 20
-14.6217022441333
 42
-0.0197129203261524
 10
554.9371323127943
 20
-256.5843885033178
 42
0.0064799626535439
 10
496.1381342734114
 20
-298.1836057459668
 42
0.0301875415893485
  0
LWPOLYLINE
  5
336D
330
3359
100
AcDbEntity
  8
Vlak2
100
AcDbPolyline
 90
        3
 70
     1
 43
0.0
 10
301.4573522579785
 20
-265.6906018982977
 42
0.0309112667632493
 10
-17.26778572618104
 20
25.13161252894452
 42
-0.0233920316759828
 10
227.4271343975799
 20
-366.6210561646851
 42
-0.0158939622948477
  0
LWPOLYLINE
  5
336E
330
3359
100
AcDbEntity
  8
Vlak2
100
AcDbPolyline
 90
        3
 70
     1
 43
0.0
 10
290.8632052987485
 20
-266.2604673174931
 42
0.0261924917571558
 10
22.87527346643037
 20
-18.07284220323231
 42
-0.0177799391798052
 10
228.1171976000235
 20
-351.5418427658631
 42
-0.0133888443726658
  0
ARC
  5
336F
330
3359
100
AcDbEntity
  8
Vlak8
370
    30
100
AcDbCircle
 10
-2512.134397733161
 20
-6404.857453612878
 30
0.0
 40
6887.834881003667
100
AcDbArc
 50
61.82244948835577
 51
63.64745138030561
  0
LWPOLYLINE
  5
3370
330
3359
100
AcDbEntity
  8
Vlak8
370
    30
100
AcDbPolyline
 90
        6
 70
     0
 43
0.0
 10
748.5344491074916
 20
-356.8611799567684
 42
0.0076111466774251
 10
546.7198357397101
 20
-252.4855230541943
 42
0.0060704551372985
 10
491.5079046229286
 20
-291.6106869055889
 10
593.518808574317
 20
-338.9627122041198
 10
679.2226916644818
 20
-380.6858736339078
 42
-0.0128817601280747
 10
748.5344491078401
 20
-356.8611799569505
  0
LWPOLYLINE
  5
3371
330
3359
100
AcDbEntity
  8
Vlak8
370
    30
100
AcDbPolyline
 90
        5
 70
     1
 43
0.0
 10
728.1504143612262
 20
-355.0285165507099
 42
0.0068212925648625
 10
547.3828273253866
 20
-261.7546693941859
 42
0.0044201762348744
 10
507.2497601231644
 20
-290.0979712978234
 10
596.954108596554
 20
-331.7374668200316
 10
679.6463618372508
 20
-371.9944785977213
 42
-0.0089802310666187
  0
ARC
  5
3372
330
3359
100
AcDbEntity
  8
Vlak8
370
    30
100
AcDbCircle
 10
-1553.331801001068
 20
-4697.126715571935
 30
0.0
 40
4929.890508960856
100
AcDbArc
 50
60.6685430984001
 51
62.27308779481624
  0
LINE
  5
3373
330
3359
100
AcDbEntity
  8
Vlak10
100
AcDbLine
 10
744.2709934409236
 20
-354.3833164769761
 30
0.0
 11
743.8244546893228
 21
-354.6459610830468
 31
0.0
  0
ENDBLK
  5
3375
330
3359
100
AcDbEntity
  8
0
100
AcDbBlockEnd
  0
BLOCK
  5
43B7
330
43AD
100
AcDbEntity
  8
0
100
AcDbBlockBegin
  2
A$C53E06F80
 70
     0
 10
0.0
 20
0.0
 30
0.0
  3
A$C53E06F80
  1

  0
ARC
  5
43AE
330
43AD
100
AcDbEntity
  8
Zoom Dacron
100
AcDbCircle
 10
-313.08289723694
 20
-2325.982148024841
 30
0.0
 40
2268.971939751122
100
AcDbArc
 50
61.60468403711188
 51
67.2596133234671
  0
ARC
  5
43AF
330
43AD
100
AcDbEntity
  8
Zoom Dacron
100
AcDbCircle
 10
-313.08289723694
 20
-2325.982148024841
 30
0.0
 40
2243.971939751122
100
AcDbArc
 50
61.60468403711188
 51
67.2596133234671
  0
ARC
  5
43B0
330
43AD
100
AcDbEntity
  8
Zoom Dacron
100
AcDbCircle
 10
-1843.238069174378
 20
-5646.936656150212
 30
0.0
 40
5924.643190381192
100
AcDbArc
 50
66.02152105438783
 51
71.24102889696473
  0
ARC
  5
43B1
330
43AD
100
AcDbEntity
  8
Zoom Dacron
100
AcDbCircle
 10
-1843.238069174491
 20
-5646.936656150479
 30
0.0
 40
5899.643190381479
100
AcDbArc
 50
66.02152105438783
 51
71.25873731522431
  0
LINE
  5
43B2
330
43AD
100
AcDbEntity
  8
Zoom Dacron
100
AcDbLine
 10
62.05446899390334
 20
-20.11604987287364
 30
0.0
 11
391.4576730427616
 21
-159.9064725360153
 31
0.0
  0
LINE
  5
43B3
330
43AD
100
AcDbEntity
  8
Zoom Dacron
100
AcDbLine
 10
52.28814090306696
 20
-43.12949888909314
 30
0.0
 11
381.6913449519252
 21
-182.9199215522349
 31
0.0
  0
ARC
  5
43B4
330
43AD
100
AcDbEntity
  8
Zoom Dacron
100
AcDbCircle
 10
-1843.238069174491
 20
-5646.936656150479
 30
0.0
 40
5924.64319038148
100
AcDbArc
 50
66.02152105438783
 51
67.84401052837679
  0
ARC
  5
43B5
330
43AD
100
AcDbEntity
  8
Zoom Dacron
100
AcDbCircle
 10
-4557.797223269147
 20
-10511.08485519075
 30
0.0
 40
11488.98241468156
100
AcDbArc
 50
59.43675624394421
 51
62.39648794404658
  0
ARC
  5
43B6
330
43AD
100
AcDbEntity
  8
Zoom Dacron
100
AcDbCircle
 10
-4557.797223269147
 20
-10511.08485519075
 30
0.0
 40
11463.98241468156
100
AcDbArc
 50
59.43675624394421
 51
62.39648794404658
  0
ENDBLK
  5
43B8
330
43AD
100
AcDbEntity
  8
0
100
AcDbBlockEnd
  0
BLOCK
  5
4590
330
458C
100
AcDbEntity
  8
0
100
AcDbBlockBegin
  2
A$C00E51877
 70
     0
 10
0.0
 20
0.0
 30
0.0
  3
A$C00E51877
  1

  0
LWPOLYLINE
  5
458D
330
458C
100
AcDbEntity
  8
0
100
AcDbPolyline
 90
        6
 70
     1
 43
0.0
 10
388.8413021092476
 20
115.3093424036621
 42
-0.0142668530475872
 10
533.1281157085994
 20
75.73428700394869
 42
-0.032375135623554
 10
831.3191032541078
 20
0.0000066175896336
 42
0.0145021498771017
 10
256.9881898519038
 20
321.6218350060371
 42
0.0028500620477681
 10
90.19878522778254
 20
249.9919473482107
 42
0.0225518173555037
 10
-0.0000166801269188
 20
206.3517566600804
 42
-0.0025639393755924
  0
ARC
  5
458E
330
458C
100
AcDbEntity
  8
Zoom Dacron
100
AcDbCircle
 10
-4999.062188177972
 20
-9737.895984434279
 30
0.0
 40
11341.88829619152
100
AcDbArc
 50
59.24985223612264
 51
62.41314566593822
  0
ARC
  5
458F
330
458C
100
AcDbEntity
  8
Zoom Dacron
100
AcDbCircle
 10
-4999.062188177972
 20
-9737.895984434279
 30
0.0
 40
11366.88829619152
100
AcDbArc
 50
59.24985223612264
 51
62.41314566593822
  0
ENDBLK
  5
4591
330
458C
100
AcDbEntity
  8
0
100
AcDbBlockEnd
  0
BLOCK
  5
45AB
330
45A7
100
AcDbEntity
  8
0
100
AcDbBlockBegin
  2
A$C2B7F721B
 70
     0
 10
0.0
 20
0.0
 30
0.0
  3
A$C2B7F721B
  1

  0
LWPOLYLINE
  5
45A8
330
45A7
100
AcDbEntity
  8
0
100
AcDbPolyline
 90
        6
 70
     1
 43
0.0
 10
-442.4778011448599
 20
115.3093357860725
 42
-0.0142668530475872
 10
-298.190987545508
 20
75.73428038635904
 42
-0.032375135623554
 10
0.0
 20
0.0
 42
0.0145021498771017
 10
-574.3309134022037
 20
321.6218283884475
 42
0.0028500620477681
 10
-741.120318026325
 20
249.9919407306211
 42
0.0225518173555037
 10
-831.3191199342345
 20
206.3517500424908
 42
-0.0025639393755924
  0
ARC
  5
45A9
330
45A7
100
AcDbEntity
  8
Zoom Dacron
100
AcDbCircle
 10
-5830.381291432079
 20
-9737.895991051869
 30
0.0
 40
11341.88829619152
100
AcDbArc
 50
59.24985223612264
 51
62.41314566593822
  0
ARC
  5
45AA
330
45A7
100
AcDbEntity
  8
Zoom Dacron
100
AcDbCircle
 10
-5830.381291432079
 20
-9737.895991051869
 30
0.0
 40
11366.88829619152
100
AcDbArc
 50
59.24985223612264
 51
62.41314566593822
  0
ENDBLK
  5
45AC
330
45A7
100
AcDbEntity
  8
0
100
AcDbBlockEnd
  0
BLOCK
  5
468F
330
468D
100
AcDbEntity
  8
0
100
AcDbBlockBegin
  2
A$C458E7194
 70
     0
 10
0.0
 20
0.0
 30
0.0
  3
A$C458E7194
  1

  0
LINE
  5
468E
330
468D
100
AcDbEntity
  8
Zoom Dacron
100
AcDbLine
 10
0.0
 20
0.0
 30
0.0
 11
57.16853307784504
 21
18.21424787706996
 31
0.0
  0
ENDBLK
  5
4690
330
468D
100
AcDbEntity
  8
0
100
AcDbBlockEnd
  0
BLOCK
  5
4811
330
480F
100
AcDbEntity
  8
0
100
AcDbBlockBegin
  2
A$C11585D55
 70
     0
 10
0.0
 20
0.0
 30
0.0
  3
A$C11585D55
  1

  0
LWPOLYLINE
  5
4810
330
480F
100
AcDbEntity
  8
Afdruklaag
 62
     7
100
AcDbPolyline
 90
        4
 70
     1
 43
0.0
 10
-280.0
 20
-200.0
 10
0.0
 20
-200.0
 10
0.0
 20
0.0
 10
-280.0
 20
0.0
  0
ENDBLK
  5
4812
330
480F
100
AcDbEntity
  8
0
100
AcDbBlockEnd
  0
BLOCK
  5
304E
330
304D
100
AcDbEntity
  8
0
100
AcDbBlockBegin
  2
*Paper_Space47
 70
     0
 10
0.0
 20
0.0
 30
0.0
  3
*Paper_Space47
  1

  0
VIEWPORT
  5
304F
330
304D
100
AcDbEntity
  8
0
100
AcDbViewport
 10
195.6126213908401
 20
148.0071344979308
 30
0.0
 40
663.8052123161458
 41
321.8576344710695
 69
     1
 12
195.6126213908401
 22
148.0071344979308
 13
0.0
 23
0.0
 14
10.0
 24
10.0
 15
10.0
 25
10.0
 16
0.0
 26
0.0
 36
1.0
 17
0.0
 27
0.0
 37
0.0
 42
50.0
 43
0.0
 44
0.0
 45
321.8576344710695
 50
0.0
 51
0.0
 72
  1000
 90
    32800
  1

281
     0
 71
     1
 74
     0
110
0.0
120
0.0
130
0.0
111
1.0
121
0.0
131
0.0
112
0.0
122
1.0
132
0.0
 79
     0
146
0.0
170
     0
  0
VIEWPORT
  5
3050
330
304D
100
AcDbEntity
  8
Vieuwports
100
AcDbViewport
 10
143.8993272985268
 20
98.18158049921876
 30
0.0
 40
284.5264821757025
 41
193.9199916748989
 69
     2
 12
10136.56831505523
 22
173.5160641933198
 13
0.0
 23
0.0
 14
10.0
 24
10.0
 15
10.0
 25
10.0
 16
0.0
 26
0.0
 36
1.0
 17
0.0
 27
0.0
 37
0.0
 42
50.0
 43
0.0
 44
0.0
 45
193.9199916382368
 50
0.0
 51
0.0
 72
  1000
 90
    32864
  1

281
     0
 71
     1
 74
     0
110
0.0
120
0.0
130
0.0
111
1.0
121
0.0
131
0.0
112
0.0
122
1.0
132
0.0
 79
     0
146
0.0
170
     0
  0
ENDBLK
  5
3051
330
304D
100
AcDbEntity
  8
0
100
AcDbBlockEnd
  0
BLOCK
  5
48BA
330
48B9
100
AcDbEntity
  8
0
100
AcDbBlockBegin
  2
*Paper_Space48
 70
     0
 10
0.0
 20
0.0
 30
0.0
  3
*Paper_Space48
  1

  0
VIEWPORT
  5
48BB
330
48B9
100
AcDbEntity
  8
0
100
AcDbViewport
 10
168.8047710103323
 20
111.8551072100022
 30
0.0
 40
557.2257797076736
 41
248.4264274099365
 69
     1
 12
168.8047710103323
 22
111.8551072100022
 13
0.0
 23
0.0
 14
10.0
 24
10.0
 15
10.0
 25
10.0
 16
0.0
 26
0.0
 36
1.0
 17
0.0
 27
0.0
 37
0.0
 42
50.0
 43
0.0
 44
0.0
 45
248.4264274099365
 50
0.0
 51
0.0
 72
  1000
 90
    32800
  1

281
     0
 71
     1
 74
     0
110
0.0
120
0.0
130
0.0
111
1.0
121
0.0
131
0.0
112
0.0
122
1.0
132
0.0
 79
     0
146
0.0
170
     0
  0
VIEWPORT
  5
48BC
330
48B9
100
AcDbEntity
  8
Vieuwports
100
AcDbViewport
 10
143.8993272985268
 20
98.18158049921876
 30
0.0
 40
284.5264821757025
 41
193.9199916748989
 69
     0
 12
5863.995264225079
 22
-17.2372832181054
 13
0.0
 23
0.0
 14
10.0
 24
10.0
 15
10.0
 25
10.0
 16
0.0
 26
0.0
 36
1.0
 17
0.0
 27
0.0
 37
0.0
 42
50.0
 43
0.0
 44
0.0
 45
193.9199963312091
 50
0.0
 51
0.0
 72
  1000
 90
    32864
  1

281
     0
 71
     1
 74
     0
110
0.0
120
0.0
130
0.0
111
1.0
121
0.0
131
0.0
112
0.0
122
1.0
132
0.0
 79
     0
146
0.0
170
     0
  0
ENDBLK
  5
48BD
330
48B9
100
AcDbEntity
  8
0
100
AcDbBlockEnd
  0
BLOCK
  5
4F01
330
4F00
100
AcDbEntity
  8
0
100
AcDbBlockBegin
  2
*Paper_Space49
 70
     0
 10
0.0
 20
0.0
 30
0.0
  3
*Paper_Space49
  1

  0
VIEWPORT
  5
4F02
330
4F00
100
AcDbEntity
  8
0
100
AcDbViewport
 10
206.5744250440401
 20
139.9349525650309
 30
0.0
 40
2742.394382374602
 41
1222.634098730696
 69
     1
 12
206.5744250440401
 22
139.9349525650309
 13
0.0
 23
0.0
 14
10.0
 24
10.0
 15
10.0
 25
10.0
 16
0.0
 26
0.0
 36
1.0
 17
0.0
 27
0.0
 37
0.0
 42
50.0
 43
0.0
 44
0.0
 45
1222.634098730696
 50
0.0
 51
0.0
 72
  1000
 90
    32800
  1

281
     0
 71
     1
 74
     0
110
0.0
120
0.0
130
0.0
111
1.0
121
0.0
131
0.0
112
0.0
122
1.0
132
0.0
 79
     0
146
0.0
170
     0
  0
VIEWPORT
  5
4F03
330
4F00
100
AcDbEntity
  8
Vieuwports
100
AcDbViewport
 10
143.8993272985268
 20
98.18158049921876
 30
0.0
 40
284.5264821757025
 41
193.9199916748989
 69
     0
 12
10976.31793494592
 22
-206.4304184751818
 13
0.0
 23
0.0
 14
10.0
 24
10.0
 15
10.0
 25
10.0
 16
0.0
 26
0.0
 36
1.0
 17
0.0
 27
0.0
 37
0.0
 42
50.0
 43
0.0
 44
0.0
 45
193.9199990790372
 50
0.0
 51
0.0
 72
  1000
 90
    32864
  1

281
     0
 71
     1
 74
     0
110
0.0
120
0.0
130
0.0
111
1.0
121
0.0
131
0.0
112
0.0
122
1.0
132
0.0
 79
     0
146
0.0
170
     0
  0
ENDBLK
  5
4F04
330
4F00
100
AcDbEntity
  8
0
100
AcDbBlockEnd
  0
BLOCK
  5
F4B
330
F4A
100
AcDbEntity
  8
0
100
AcDbBlockBegin
  2
*Paper_Space50
 70
     0
 10
0.0
 20
0.0
 30
0.0
  3
*Paper_Space50
  1

  0
VIEWPORT
  5
F4C
330
F4A
100
AcDbEntity
  8
0
100
AcDbViewport
 10
173.6384862389926
 20
137.3483907688874
 30
0.0
 40
619.726717983555
 41
300.4854010903871
 69
     1
 12
173.6384862389926
 22
137.3483907688874
 13
0.0
 23
0.0
 14
10.0
 24
10.0
 15
10.0
 25
10.0
 16
0.0
 26
0.0
 36
1.0
 17
0.0
 27
0.0
 37
0.0
 42
50.0
 43
0.0
 44
0.0
 45
300.4854010903871
 50
0.0
 51
0.0
 72
  1000
 90
    32800
  1

281
     0
 71
     1
 74
     0
110
0.0
120
0.0
130
0.0
111
1.0
121
0.0
131
0.0
112
0.0
122
1.0
132
0.0
 79
     0
146
0.0
170
     0
  0
VIEWPORT
  5
F4D
330
F4A
100
AcDbEntity
  8
Vieuwports
100
AcDbViewport
 10
143.8993272985268
 20
98.18158049921876
 30
0.0
 40
284.5264821757025
 41
193.9199916748989
 69
     2
 12
6283.913751772697
 22
66.40842582949495
 13
0.0
 23
0.0
 14
10.0
 24
10.0
 15
10.0
 25
10.0
 16
0.0
 26
0.0
 36
1.0
 17
0.0
 27
0.0
 37
0.0
 42
50.0
 43
0.0
 44
0.0
 45
1163.355387106845
 50
0.0
 51
0.0
 72
  1000
 90
    32864
  1

281
     0
 71
     1
 74
     0
110
0.0
120
0.0
130
0.0
111
1.0
121
0.0
131
0.0
112
0.0
122
1.0
132
0.0
 79
     0
146
0.0
170
     0
  0
ENDBLK
  5
F4E
330
F4A
100
AcDbEntity
  8
0
100
AcDbBlockEnd
  0
BLOCK
  5
48AE
330
48AD
100
AcDbEntity
  8
0
100
AcDbBlockBegin
  2
*Paper_Space51
 70
     0
 10
0.0
 20
0.0
 30
0.0
  3
*Paper_Space51
  1

  0
VIEWPORT
  5
48AF
330
48AD
100
AcDbEntity
  8
0
100
AcDbViewport
 10
159.8890689100938
 20
111.8551072100022
 30
0.0
 40
539.3943755071965
 41
248.4264274099365
 69
     0
 12
159.8890689100938
 22
111.8551072100022
 13
0.0
 23
0.0
 14
10.0
 24
10.0
 15
10.0
 25
10.0
 16
0.0
 26
0.0
 36
1.0
 17
0.0
 27
0.0
 37
0.0
 42
50.0
 43
0.0
 44
0.0
 45
248.4264274099365
 50
0.0
 51
0.0
 72
  1000
 90
    32800
  1

281
     0
 71
     1
 74
     0
110
0.0
120
0.0
130
0.0
111
1.0
121
0.0
131
0.0
112
0.0
122
1.0
132
0.0
 79
     0
146
0.0
170
     0
  0
VIEWPORT
  5
48B0
330
48AD
100
AcDbEntity
  8
Vieuwports
100
AcDbViewport
 10
143.8993272985268
 20
98.18158049921876
 30
0.0
 40
284.5264821757025
 41
193.9199916748989
 69
     0
 12
6424.219383261349
 22
173.4723566898728
 13
0.0
 23
0.0
 14
10.0
 24
10.0
 15
10.0
 25
10.0
 16
0.0
 26
0.0
 36
1.0
 17
0.0
 27
0.0
 37
0.0
 42
50.0
 43
0.0
 44
0.0
 45
193.9199963312091
 50
0.0
 51
0.0
 72
  1000
 90
    32864
  1

281
     0
 71
     1
 74
     0
110
0.0
120
0.0
130
0.0
111
1.0
121
0.0
131
0.0
112
0.0
122
1.0
132
0.0
 79
     0
146
0.0
170
     0
  0
ENDBLK
  5
48B1
330
48AD
100
AcDbEntity
  8
0
100
AcDbBlockEnd
  0
BLOCK
  5
489C
330
489B
100
AcDbEntity
  8
0
100
AcDbBlockBegin
  2
*Paper_Space52
 70
     0
 10
0.0
 20
0.0
 30
0.0
  3
*Paper_Space52
  1

  0
VIEWPORT
  5
489D
330
489B
100
AcDbEntity
  8
0
100
AcDbViewport
 10
159.8890689100938
 20
111.8551072100022
 30
0.0
 40
539.3943755071965
 41
248.4264274099365
 69
     0
 12
159.8890689100938
 22
111.8551072100022
 13
0.0
 23
0.0
 14
10.0
 24
10.0
 15
10.0
 25
10.0
 16
0.0
 26
0.0
 36
1.0
 17
0.0
 27
0.0
 37
0.0
 42
50.0
 43
0.0
 44
0.0
 45
248.4264274099365
 50
0.0
 51
0.0
 72
  1000
 90
    32800
  1

281
     0
 71
     1
 74
     0
110
0.0
120
0.0
130
0.0
111
1.0
121
0.0
131
0.0
112
0.0
122
1.0
132
0.0
 79
     0
146
0.0
170
     0
  0
VIEWPORT
  5
489E
330
489B
100
AcDbEntity
  8
Vieuwports
100
AcDbViewport
 10
143.8993272985268
 20
98.18158049921876
 30
0.0
 40
284.5264821757025
 41
193.9199916748989
 69
     0
 12
5584.684051286409
 22
173.0714618243919
 13
0.0
 23
0.0
 14
10.0
 24
10.0
 15
10.0
 25
10.0
 16
0.0
 26
0.0
 36
1.0
 17
0.0
 27
0.0
 37
0.0
 42
50.0
 43
0.0
 44
0.0
 45
193.9199989668519
 50
0.0
 51
0.0
 72
  1000
 90
    32864
  1

281
     0
 71
     1
 74
     0
110
0.0
120
0.0
130
0.0
111
1.0
121
0.0
131
0.0
112
0.0
122
1.0
132
0.0
 79
     0
146
0.0
170
     0
  0
ENDBLK
  5
489F
330
489B
100
AcDbEntity
  8
0
100
AcDbBlockEnd
  0
BLOCK
  5
68D
330
68C
100
AcDbEntity
  8
0
100
AcDbBlockBegin
  2
*Paper_Space53
 70
     0
 10
0.0
 20
0.0
 30
0.0
  3
*Paper_Space53
  1

  0
VIEWPORT
  5
68E
330
68C
100
AcDbEntity
  8
0
100
AcDbViewport
 10
177.9344141026533
 20
131.7966117739292
 30
0.0
 40
628.3185737108766
 41
289.3818431004707
 69
     0
 12
177.9344141026533
 22
131.7966117739292
 13
0.0
 23
0.0
 14
10.0
 24
10.0
 15
10.0
 25
10.0
 16
0.0
 26
0.0
 36
1.0
 17
0.0
 27
0.0
 37
0.0
 42
50.0
 43
0.0
 44
0.0
 45
289.3818431004707
 50
0.0
 51
0.0
 72
  1000
 90
    32800
  1

281
     0
 71
     1
 74
     0
110
0.0
120
0.0
130
0.0
111
1.0
121
0.0
131
0.0
112
0.0
122
1.0
132
0.0
 79
     0
146
0.0
170
     0
  0
VIEWPORT
  5
68F
330
68C
100
AcDbEntity
  8
Vieuwports
100
AcDbViewport
 10
143.8993272985268
 20
98.18158049921876
 30
0.0
 40
284.5264821757025
 41
193.9199916748989
 69
     0
 12
11255.89404082408
 22
173.5723296484939
 13
0.0
 23
0.0
 14
10.0
 24
10.0
 15
10.0
 25
10.0
 16
0.0
 26
0.0
 36
1.0
 17
0.0
 27
0.0
 37
0.0
 42
50.0
 43
0.0
 44
0.0
 45
193.9199924152009
 50
0.0
 51
0.0
 72
  1000
 90
    32864
  1

281
     0
 71
     1
 74
     0
110
0.0
120
0.0
130
0.0
111
1.0
121
0.0
131
0.0
112
0.0
122
1.0
132
0.0
 79
     0
146
0.0
170
     0
  0
ENDBLK
  5
690
330
68C
100
AcDbEntity
  8
0
100
AcDbBlockEnd
  0
BLOCK
  5
48A2
330
48A1
100
AcDbEntity
  8
0
100
AcDbBlockBegin
  2
*Paper_Space54
 70
     0
 10
0.0
 20
0.0
 30
0.0
  3
*Paper_Space54
  1

  0
VIEWPORT
  5
48A3
330
48A1
100
AcDbEntity
  8
0
100
AcDbViewport
 10
159.8890689100938
 20
111.8551072100022
 30
0.0
 40
539.3943755071965
 41
248.4264274099365
 69
     0
 12
159.8890689100938
 22
111.8551072100022
 13
0.0
 23
0.0
 14
10.0
 24
10.0
 15
10.0
 25
10.0
 16
0.0
 26
0.0
 36
1.0
 17
0.0
 27
0.0
 37
0.0
 42
50.0
 43
0.0
 44
0.0
 45
248.4264274099365
 50
0.0
 51
0.0
 72
  1000
 90
    32800
  1

281
     0
 71
     1
 74
     0
110
0.0
120
0.0
130
0.0
111
1.0
121
0.0
131
0.0
112
0.0
122
1.0
132
0.0
 79
     0
146
0.0
170
     0
  0
VIEWPORT
  5
48A4
330
48A1
100
AcDbEntity
  8
Vieuwports
100
AcDbViewport
 10
143.8993272985268
 20
98.18158049921876
 30
0.0
 40
284.5264821757025
 41
193.9199916748989
 69
     0
 12
5864.395977394126
 22
173.4729499535033
 13
0.0
 23
0.0
 14
10.0
 24
10.0
 15
10.0
 25
10.0
 16
0.0
 26
0.0
 36
1.0
 17
0.0
 27
0.0
 37
0.0
 42
50.0
 43
0.0
 44
0.0
 45
193.9199989668518
 50
0.0
 51
0.0
 72
  1000
 90
    32864
  1

281
     0
 71
     1
 74
     0
110
0.0
120
0.0
130
0.0
111
1.0
121
0.0
131
0.0
112
0.0
122
1.0
132
0.0
 79
     0
146
0.0
170
     0
  0
ENDBLK
  5
48A5
330
48A1
100
AcDbEntity
  8
0
100
AcDbBlockEnd
  0
BLOCK
  5
48E6
330
48E5
100
AcDbEntity
  8
0
100
AcDbBlockBegin
  2
*Paper_Space55
 70
     0
 10
0.0
 20
0.0
 30
0.0
  3
*Paper_Space55
  1

  0
VIEWPORT
  5
48E7
330
48E5
100
AcDbEntity
  8
0
100
AcDbViewport
 10
159.8890689100938
 20
111.8551072100022
 30
0.0
 40
539.3943755071965
 41
248.4264274099365
 69
     0
 12
159.8890689100938
 22
111.8551072100022
 13
0.0
 23
0.0
 14
10.0
 24
10.0
 15
10.0
 25
10.0
 16
0.0
 26
0.0
 36
1.0
 17
0.0
 27
0.0
 37
0.0
 42
50.0
 43
0.0
 44
0.0
 45
248.4264274099365
 50
0.0
 51
0.0
 72
  1000
 90
    32800
  1

281
     0
 71
     1
 74
     0
110
0.0
120
0.0
130
0.0
111
1.0
121
0.0
131
0.0
112
0.0
122
1.0
132
0.0
 79
     0
146
0.0
170
     0
  0
VIEWPORT
  5
48E8
330
48E5
100
AcDbEntity
  8
Vieuwports
100
AcDbViewport
 10
143.8993272985268
 20
98.18158049921876
 30
0.0
 40
284.5264821757025
 41
193.9199916748989
 69
     0
 12
6425.423282036034
 22
-16.83640781958428
 13
0.0
 23
0.0
 14
10.0
 24
10.0
 15
10.0
 25
10.0
 16
0.0
 26
0.0
 36
1.0
 17
0.0
 27
0.0
 37
0.0
 42
50.0
 43
0.0
 44
0.0
 45
193.9199963312078
 50
0.0
 51
0.0
 72
  1000
 90
    32864
  1

281
     0
 71
     1
 74
     0
110
0.0
120
0.0
130
0.0
111
1.0
121
0.0
131
0.0
112
0.0
122
1.0
132
0.0
 79
     0
146
0.0
170
     0
  0
ENDBLK
  5
48E9
330
48E5
100
AcDbEntity
  8
0
100
AcDbBlockEnd
  0
BLOCK
  5
48B4
330
48B3
100
AcDbEntity
  8
0
100
AcDbBlockBegin
  2
*Paper_Space56
 70
     0
 10
0.0
 20
0.0
 30
0.0
  3
*Paper_Space56
  1

  0
VIEWPORT
  5
48B5
330
48B3
100
AcDbEntity
  8
0
100
AcDbViewport
 10
168.8047710103323
 20
111.8551072100022
 30
0.0
 40
557.2257797076736
 41
248.4264274099365
 69
     1
 12
168.8047710103323
 22
111.8551072100022
 13
0.0
 23
0.0
 14
10.0
 24
10.0
 15
10.0
 25
10.0
 16
0.0
 26
0.0
 36
1.0
 17
0.0
 27
0.0
 37
0.0
 42
50.0
 43
0.0
 44
0.0
 45
248.4264274099365
 50
0.0
 51
0.0
 72
  1000
 90
    32800
  1

281
     0
 71
     1
 74
     0
110
0.0
120
0.0
130
0.0
111
1.0
121
0.0
131
0.0
112
0.0
122
1.0
132
0.0
 79
     0
146
0.0
170
     0
  0
VIEWPORT
  5
48B6
330
48B3
100
AcDbEntity
  8
Vieuwports
100
AcDbViewport
 10
143.8993272985268
 20
98.18158049921876
 30
0.0
 40
284.5264821757025
 41
193.9199916748989
 69
     0
 12
5584.889385798442
 22
-16.43430775080225
 13
0.0
 23
0.0
 14
10.0
 24
10.0
 15
10.0
 25
10.0
 16
0.0
 26
0.0
 36
1.0
 17
0.0
 27
0.0
 37
0.0
 42
50.0
 43
0.0
 44
0.0
 45
193.9199963312104
 50
0.0
 51
0.0
 72
  1000
 90
    32864
  1

281
     0
 71
     1
 74
     0
110
0.0
120
0.0
130
0.0
111
1.0
121
0.0
131
0.0
112
0.0
122
1.0
132
0.0
 79
     0
146
0.0
170
     0
  0
ENDBLK
  5
48B7
330
48B3
100
AcDbEntity
  8
0
100
AcDbBlockEnd
  0
BLOCK
  5
48E0
330
48DF
100
AcDbEntity
  8
0
100
AcDbBlockBegin
  2
*Paper_Space57
 70
     0
 10
0.0
 20
0.0
 30
0.0
  3
*Paper_Space57
  1

  0
VIEWPORT
  5
48E1
330
48DF
100
AcDbEntity
  8
0
100
AcDbViewport
 10
159.8890689100938
 20
111.8551072100022
 30
0.0
 40
539.3943755071965
 41
248.4264274099365
 69
     0
 12
159.8890689100938
 22
111.8551072100022
 13
0.0
 23
0.0
 14
10.0
 24
10.0
 15
10.0
 25
10.0
 16
0.0
 26
0.0
 36
1.0
 17
0.0
 27
0.0
 37
0.0
 42
50.0
 43
0.0
 44
0.0
 45
248.4264274099365
 50
0.0
 51
0.0
 72
  1000
 90
    32800
  1

281
     0
 71
     1
 74
     0
110
0.0
120
0.0
130
0.0
111
1.0
121
0.0
131
0.0
112
0.0
122
1.0
132
0.0
 79
     0
146
0.0
170
     0
  0
VIEWPORT
  5
48E2
330
48DF
100
AcDbEntity
  8
Vieuwports
100
AcDbViewport
 10
143.8993272985268
 20
98.18158049921876
 30
0.0
 40
284.5264821757025
 41
193.9199916748989
 69
     0
 12
6144.509816171488
 22
-16.43430775080288
 13
0.0
 23
0.0
 14
10.0
 24
10.0
 15
10.0
 25
10.0
 16
0.0
 26
0.0
 36
1.0
 17
0.0
 27
0.0
 37
0.0
 42
50.0
 43
0.0
 44
0.0
 45
193.9199963312091
 50
0.0
 51
0.0
 72
  1000
 90
    32864
  1

281
     0
 71
     1
 74
     0
110
0.0
120
0.0
130
0.0
111
1.0
121
0.0
131
0.0
112
0.0
122
1.0
132
0.0
 79
     0
146
0.0
170
     0
  0
ENDBLK
  5
48E3
330
48DF
100
AcDbEntity
  8
0
100
AcDbBlockEnd
  0
BLOCK
  5
48EC
330
48EB
100
AcDbEntity
  8
0
100
AcDbBlockBegin
  2
*Paper_Space58
 70
     0
 10
0.0
 20
0.0
 30
0.0
  3
*Paper_Space58
  1

  0
VIEWPORT
  5
48ED
330
48EB
100
AcDbEntity
  8
0
100
AcDbViewport
 10
159.8890689100938
 20
111.8551072100022
 30
0.0
 40
539.3943755071965
 41
248.4264274099365
 69
     0
 12
159.8890689100938
 22
111.8551072100022
 13
0.0
 23
0.0
 14
10.0
 24
10.0
 15
10.0
 25
10.0
 16
0.0
 26
0.0
 36
1.0
 17
0.0
 27
0.0
 37
0.0
 42
50.0
 43
0.0
 44
0.0
 45
248.4264274099365
 50
0.0
 51
0.0
 72
  1000
 90
    32800
  1

281
     0
 71
     1
 74
     0
110
0.0
120
0.0
130
0.0
111
1.0
121
0.0
131
0.0
112
0.0
122
1.0
132
0.0
 79
     0
146
0.0
170
     0
  0
VIEWPORT
  5
48EE
330
48EB
100
AcDbEntity
  8
Vieuwports
100
AcDbViewport
 10
143.8993272985268
 20
98.18158049921876
 30
0.0
 40
284.5264821757025
 41
193.9199916748989
 69
     0
 12
6704.733915216083
 22
-16.83640781958365
 13
0.0
 23
0.0
 14
10.0
 24
10.0
 15
10.0
 25
10.0
 16
0.0
 26
0.0
 36
1.0
 17
0.0
 27
0.0
 37
0.0
 42
50.0
 43
0.0
 44
0.0
 45
193.9199963312091
 50
0.0
 51
0.0
 72
  1000
 90
    32864
  1

281
     0
 71
     1
 74
     0
110
0.0
120
0.0
130
0.0
111
1.0
121
0.0
131
0.0
112
0.0
122
1.0
132
0.0
 79
     0
146
0.0
170
     0
  0
ENDBLK
  5
48EF
330
48EB
100
AcDbEntity
  8
0
100
AcDbBlockEnd
  0
BLOCK
  5
48FE
330
48FD
100
AcDbEntity
  8
0
100
AcDbBlockBegin
  2
*Paper_Space59
 70
     0
 10
0.0
 20
0.0
 30
0.0
  3
*Paper_Space59
  1

  0
VIEWPORT
  5
48FF
330
48FD
100
AcDbEntity
  8
0
100
AcDbViewport
 10
159.8890689100938
 20
111.8551072100022
 30
0.0
 40
539.3943755071965
 41
248.4264274099365
 69
     0
 12
159.8890689100938
 22
111.8551072100022
 13
0.0
 23
0.0
 14
10.0
 24
10.0
 15
10.0
 25
10.0
 16
0.0
 26
0.0
 36
1.0
 17
0.0
 27
0.0
 37
0.0
 42
50.0
 43
0.0
 44
0.0
 45
248.4264274099365
 50
0.0
 51
0.0
 72
  1000
 90
    32800
  1

281
     0
 71
     1
 74
     0
110
0.0
120
0.0
130
0.0
111
1.0
121
0.0
131
0.0
112
0.0
122
1.0
132
0.0
 79
     0
146
0.0
170
     0
  0
VIEWPORT
  5
4900
330
48FD
100
AcDbEntity
  8
Vieuwports
100
AcDbViewport
 10
143.8993272985268
 20
98.18158049921876
 30
0.0
 40
284.5264821757025
 41
193.9199916748989
 69
     0
 12
5585.085344214075
 22
-396.6491379732515
 13
0.0
 23
0.0
 14
10.0
 24
10.0
 15
10.0
 25
10.0
 16
0.0
 26
0.0
 36
1.0
 17
0.0
 27
0.0
 37
0.0
 42
50.0
 43
0.0
 44
0.0
 45
193.9199963312091
 50
0.0
 51
0.0
 72
  1000
 90
    32864
  1

281
     0
 71
     1
 74
     0
110
0.0
120
0.0
130
0.0
111
1.0
121
0.0
131
0.0
112
0.0
122
1.0
132
0.0
 79
     0
146
0.0
170
     0
  0
ENDBLK
  5
4901
330
48FD
100
AcDbEntity
  8
0
100
AcDbBlockEnd
  0
BLOCK
  5
48F2
330
48F1
100
AcDbEntity
  8
0
100
AcDbBlockBegin
  2
*Paper_Space60
 70
     0
 10
0.0
 20
0.0
 30
0.0
  3
*Paper_Space60
  1

  0
VIEWPORT
  5
48F3
330
48F1
100
AcDbEntity
  8
0
100
AcDbViewport
 10
159.8890689100938
 20
111.7627553782512
 30
0.0
 40
538.9936367438182
 41
248.2418609705532
 69
     0
 12
159.8890689100938
 22
111.7627553782512
 13
0.0
 23
0.0
 14
10.0
 24
10.0
 15
10.0
 25
10.0
 16
0.0
 26
0.0
 36
1.0
 17
0.0
 27
0.0
 37
0.0
 42
50.0
 43
0.0
 44
0.0
 45
248.2418609705532
 50
0.0
 51
0.0
 72
  1000
 90
    32800
  1

281
     0
 71
     1
 74
     0
110
0.0
120
0.0
130
0.0
111
1.0
121
0.0
131
0.0
112
0.0
122
1.0
132
0.0
 79
     0
146
0.0
170
     0
  0
VIEWPORT
  5
48F4
330
48F1
100
AcDbEntity
  8
Vieuwports
100
AcDbViewport
 10
143.8993272985268
 20
98.18158049921876
 30
0.0
 40
284.5264821757025
 41
193.9199916748989
 69
     0
 12
5585.474762085749
 22
-206.7430708137945
 13
0.0
 23
0.0
 14
10.0
 24
10.0
 15
10.0
 25
10.0
 16
0.0
 26
0.0
 36
1.0
 17
0.0
 27
0.0
 37
0.0
 42
50.0
 43
0.0
 44
0.0
 45
193.9199989668501
 50
0.0
 51
0.0
 72
  1000
 90
    32864
  1

281
     0
 71
     1
 74
     0
110
0.0
120
0.0
130
0.0
111
1.0
121
0.0
131
0.0
112
0.0
122
1.0
132
0.0
 79
     0
146
0.0
170
     0
  0
ENDBLK
  5
48F5
330
48F1
100
AcDbEntity
  8
0
100
AcDbBlockEnd
  0
BLOCK
  5
48F8
330
48F7
100
AcDbEntity
  8
0
100
AcDbBlockBegin
  2
*Paper_Space61
 70
     0
 10
0.0
 20
0.0
 30
0.0
  3
*Paper_Space61
  1

  0
VIEWPORT
  5
48F9
330
48F7
100
AcDbEntity
  8
0
100
AcDbViewport
 10
159.8890689100938
 20
111.8551072100022
 30
0.0
 40
539.3943755071965
 41
248.4264274099365
 69
     0
 12
159.8890689100938
 22
111.8551072100022
 13
0.0
 23
0.0
 14
10.0
 24
10.0
 15
10.0
 25
10.0
 16
0.0
 26
0.0
 36
1.0
 17
0.0
 27
0.0
 37
0.0
 42
50.0
 43
0.0
 44
0.0
 45
248.4264274099365
 50
0.0
 51
0.0
 72
  1000
 90
    32800
  1

281
     0
 71
     1
 74
     0
110
0.0
120
0.0
130
0.0
111
1.0
121
0.0
131
0.0
112
0.0
122
1.0
132
0.0
 79
     0
146
0.0
170
     0
  0
VIEWPORT
  5
48FA
330
48F7
100
AcDbEntity
  8
Vieuwports
100
AcDbViewport
 10
143.8993272985268
 20
98.18158049921876
 30
0.0
 40
284.5264821757025
 41
193.9199916748989
 69
     0
 12
5864.797870072095
 22
-206.3403734637951
 13
0.0
 23
0.0
 14
10.0
 24
10.0
 15
10.0
 25
10.0
 16
0.0
 26
0.0
 36
1.0
 17
0.0
 27
0.0
 37
0.0
 42
50.0
 43
0.0
 44
0.0
 45
193.9199963312091
 50
0.0
 51
0.0
 72
  1000
 90
    32864
  1

281
     0
 71
     1
 74
     0
110
0.0
120
0.0
130
0.0
111
1.0
121
0.0
131
0.0
112
0.0
122
1.0
132
0.0
 79
     0
146
0.0
170
     0
  0
ENDBLK
  5
48FB
330
48F7
100
AcDbEntity
  8
0
100
AcDbBlockEnd
  0
BLOCK
  5
4AA5
330
4A9F
100
AcDbEntity
  8
0
100
AcDbBlockBegin
  2
A$C22752680
 70
     0
 10
0.0
 20
0.0
 30
0.0
  3
A$C22752680
  1

  0
LINE
  5
4AA0
330
4A9F
100
AcDbEntity
  8
Papierlayout
100
AcDbLine
 10
280.0000000000018
 20
0.0
 30
0.0
 11
280.0000000000018
 21
20.0
 31
0.0
  0
LINE
  5
4AA1
330
4A9F
100
AcDbEntity
  8
Papierlayout
100
AcDbLine
 10
260.0000000000018
 20
0.0
 30
0.0
 11
280.0000000000018
 21
0.0
 31
0.0
  0
LINE
  5
4AA2
330
4A9F
100
AcDbEntity
  8
Papierlayout
100
AcDbLine
 10
280.0000000000018
 20
190.0
 30
0.0
 11
280.0000000000018
 21
170.0
 31
0.0
  0
LINE
  5
4AA3
330
4A9F
100
AcDbEntity
  8
Papierlayout
100
AcDbLine
 10
280.0000000000018
 20
190.0
 30
0.0
 11
260.0000000000018
 21
190.0
 31
0.0
  0
LINE
  5
4AA4
330
4A9F
100
AcDbEntity
  8
Papierlayout
100
AcDbLine
 10
20.0
 20
0.0
 30
0.0
 11
0.0
 21
0.0
 31
0.0
  0
ENDBLK
  5
4AA6
330
4A9F
100
AcDbEntity
  8
0
100
AcDbBlockEnd
  0
BLOCK
  5
4E4E
330
4E48
100
AcDbEntity
  8
0
100
AcDbBlockBegin
  2
A$C0A43386E
 70
     0
 10
0.0
 20
0.0
 30
0.0
  3
A$C0A43386E
  1

  0
LWPOLYLINE
  5
4E49
330
4E48
100
AcDbEntity
  8
Layer1
 62
     7
370
    25
100
AcDbPolyline
 90
        4
 70
   129
 43
0.0
 10
66.62359189670133
 20
637.6526661378066
 10
270.8177315214143
 20
373.4753322044503
 10
8.008236826283791
 20
79.80527545394443
 10
8.079372263737241
 20
770.6316787722207
  0
LINE
  5
4E4A
330
4E48
100
AcDbEntity
  8
Papierlayout
100
AcDbLine
 10
0.0623758063638889
 20
254.5828967994007
 30
0.0
 11
0.0000191125054698
 21
-0.0000137520132739
 31
0.0
  0
LINE
  5
4E4B
330
4E48
100
AcDbEntity
  8
Papierlayout
100
AcDbLine
 10
7.000019112504559
 20
-0.0000137520141834
 30
0.0
 11
0.0262338993434241
 21
254.5828967994007
 31
0.0
  0
LWPOLYLINE
  5
4E4C
330
4E48
100
AcDbEntity
  8
Layer1
 62
     7
370
    25
100
AcDbPolyline
 90
        5
 70
   129
 43
0.0
 10
73.55134381815695
 20
641.7712635711341
 10
281.2183549238143
 20
373.1008823318384
 10
0.0060807471800217
 20
58.8670887157
 10
0.0813238063637982
 20
789.5843487994008
 10
8.476013706338562
 20
789.5852270910345
  0
LINE
  5
4E4D
330
4E48
100
AcDbEntity
  8
Layer1
 62
     7
370
    25
100
AcDbLine
 10
16.5000191127865
 20
-0.0000137518159136
 30
0.0
 11
25.00001911278741
 21
279.9999862481841
 31
0.0
  0
ENDBLK
  5
4E4F
330
4E48
100
AcDbEntity
  8
0
100
AcDbBlockEnd
  0
BLOCK
  5
4E59
330
4E57
100
AcDbEntity
  8
0
100
AcDbBlockBegin
  2
A$C54E62184
 70
     0
 10
0.0
 20
0.0
 30
0.0
  3
A$C54E62184
  1

  0
LWPOLYLINE
  5
4E58
330
4E57
100
AcDbEntity
  8
Layer1
 62
     7
370
    25
100
AcDbPolyline
 90
        6
 70
     1
 43
0.0
 10
-281.1370311174505
 20
416.4834664675622
 10
-272.7423412174758
 20
416.4843447591961
 10
-207.6670111056574
 20
268.6703812392957
 10
0.0
 20
0.0
 10
-275.9907113714244
 20
-308.3990856764153
 10
-281.1921210244709
 20
-118.5179855324377
  0
ENDBLK
  5
4E5A
330
4E57
100
AcDbEntity
  8
0
100
AcDbBlockEnd
  0
BLOCK
  5
4E74
330
4E71
100
AcDbEntity
  8
0
100
AcDbBlockBegin
  2
A$C75E65592
 70
     0
 10
0.0
 20
0.0
 30
0.0
  3
A$C75E65592
  1

  0
LWPOLYLINE
  5
4E72
330
4E71
100
AcDbEntity
  8
Layer1
 62
     7
370
    25
100
AcDbPolyline
 90
        6
 70
   128
 43
0.0
 10
0.0000191125054698
 20
-0.0000137520132739
 42
-0.025426629832127
 10
340.1086298063556
 20
212.9089547993949
 42
-0.0193086679796347
 10
388.089890246325
 20
234.8352233528149
 10
276.2430456589409
 20
379.5377170985152
 10
0.0073161739346688
 20
70.86484191002864
 10
0.0000191127874132
 20
-0.0000137518159136
  0
LINE
  5
4E73
330
4E71
100
AcDbEntity
  8
Papierlayout
100
AcDbLine
 10
7.000019112504559
 20
-0.0000137520141834
 30
0.0
 11
0.0262338993434241
 21
254.5828967994007
 31
0.0
  0
ENDBLK
  5
4E75
330
4E71
100
AcDbEntity
  8
0
100
AcDbBlockEnd
  0
BLOCK
  5
70D
330
70C
100
AcDbEntity
  8
0
100
AcDbBlockBegin
  2
*Paper_Space66
 70
     0
 10
0.0
 20
0.0
 30
0.0
  3
*Paper_Space66
  1

  0
VIEWPORT
  5
70E
330
70C
100
AcDbEntity
  8
0
100
AcDbViewport
 10
206.5744250440401
 20
139.9349525650309
 30
0.0
 40
685.5985955936501
 41
305.6585246826742
 69
     1
 12
206.5744250440401
 22
139.9349525650309
 13
0.0
 23
0.0
 14
10.0
 24
10.0
 15
10.0
 25
10.0
 16
0.0
 26
0.0
 36
1.0
 17
0.0
 27
0.0
 37
0.0
 42
50.0
 43
0.0
 44
0.0
 45
305.6585246826742
 50
0.0
 51
0.0
 72
  1000
 90
    32800
  1

281
     0
 71
     1
 74
     0
110
0.0
120
0.0
130
0.0
111
1.0
121
0.0
131
0.0
112
0.0
122
1.0
132
0.0
 79
     0
146
0.0
170
     0
  0
VIEWPORT
  5
70F
330
70C
100
AcDbEntity
  8
Vieuwports
100
AcDbViewport
 10
143.8993272985268
 20
98.18158049921876
 30
0.0
 40
284.5264821757025
 41
193.9199916748989
 69
     0
 12
10415.79465037969
 22
-206.4304258290531
 13
0.0
 23
0.0
 14
10.0
 24
10.0
 15
10.0
 25
10.0
 16
0.0
 26
0.0
 36
1.0
 17
0.0
 27
0.0
 37
0.0
 42
50.0
 43
0.0
 44
0.0
 45
193.9199989922187
 50
0.0
 51
0.0
 72
  1000
 90
    32864
  1

281
     0
 71
     1
 74
     0
110
0.0
120
0.0
130
0.0
111
1.0
121
0.0
131
0.0
112
0.0
122
1.0
132
0.0
 79
     0
146
0.0
170
     0
  0
ENDBLK
  5
710
330
70C
100
AcDbEntity
  8
0
100
AcDbBlockEnd
  0
BLOCK
  5
717
330
716
100
AcDbEntity
  8
0
100
AcDbBlockBegin
  2
*Paper_Space67
 70
     0
 10
0.0
 20
0.0
 30
0.0
  3
*Paper_Space67
  1

  0
VIEWPORT
  5
718
330
716
100
AcDbEntity
  8
0
100
AcDbViewport
 10
189.4154628848475
 20
132.2850199479385
 30
0.0
 40
651.2806712752649
 41
290.3586594484893
 69
     1
 12
189.4154628848475
 22
132.2850199479385
 13
0.0
 23
0.0
 14
10.0
 24
10.0
 15
10.0
 25
10.0
 16
0.0
 26
0.0
 36
1.0
 17
0.0
 27
0.0
 37
0.0
 42
50.0
 43
0.0
 44
0.0
 45
290.3586594484893
 50
0.0
 51
0.0
 72
  1000
 90
    32800
  1

281
     0
 71
     1
 74
     0
110
0.0
120
0.0
130
0.0
111
1.0
121
0.0
131
0.0
112
0.0
122
1.0
132
0.0
 79
     0
146
0.0
170
     0
  0
VIEWPORT
  5
719
330
716
100
AcDbEntity
  8
Vieuwports
100
AcDbViewport
 10
143.8993272985268
 20
98.18158049921876
 30
0.0
 40
284.5264821757025
 41
193.9199916748989
 69
     0
 12
10135.96070507285
 22
-206.8682357255247
 13
0.0
 23
0.0
 14
10.0
 24
10.0
 15
10.0
 25
10.0
 16
0.0
 26
0.0
 36
1.0
 17
0.0
 27
0.0
 37
0.0
 42
50.0
 43
0.0
 44
0.0
 45
193.9199981477245
 50
0.0
 51
0.0
 72
  1000
 90
    32864
  1

281
     0
 71
     1
 74
     0
110
0.0
120
0.0
130
0.0
111
1.0
121
0.0
131
0.0
112
0.0
122
1.0
132
0.0
 79
     0
146
0.0
170
     0
  0
ENDBLK
  5
71A
330
716
100
AcDbEntity
  8
0
100
AcDbBlockEnd
  0
BLOCK
  5
4EFB
330
4EFA
100
AcDbEntity
  8
0
100
AcDbBlockBegin
  2
*Paper_Space68
 70
     0
 10
0.0
 20
0.0
 30
0.0
  3
*Paper_Space68
  1

  0
VIEWPORT
  5
4EFC
330
4EFA
100
AcDbEntity
  8
0
100
AcDbViewport
 10
189.4154628848475
 20
132.2850199479385
 30
0.0
 40
651.2806712752649
 41
290.3586594484893
 69
     1
 12
189.4154628848475
 22
132.2850199479385
 13
0.0
 23
0.0
 14
10.0
 24
10.0
 15
10.0
 25
10.0
 16
0.0
 26
0.0
 36
1.0
 17
0.0
 27
0.0
 37
0.0
 42
50.0
 43
0.0
 44
0.0
 45
290.3586594484893
 50
0.0
 51
0.0
 72
  1000
 90
    32800
  1

281
     0
 71
     1
 74
     0
110
0.0
120
0.0
130
0.0
111
1.0
121
0.0
131
0.0
112
0.0
122
1.0
132
0.0
 79
     0
146
0.0
170
     0
  0
VIEWPORT
  5
4EFD
330
4EFA
100
AcDbEntity
  8
Vieuwports
100
AcDbViewport
 10
143.8993272985268
 20
98.18158049921876
 30
0.0
 40
284.5264821757025
 41
193.9199916748989
 69
     0
 12
10695.95903570242
 22
-206.8682367797706
 13
0.0
 23
0.0
 14
10.0
 24
10.0
 15
10.0
 25
10.0
 16
0.0
 26
0.0
 36
1.0
 17
0.0
 27
0.0
 37
0.0
 42
50.0
 43
0.0
 44
0.0
 45
193.9199959410175
 50
0.0
 51
0.0
 72
  1000
 90
    32864
  1

281
     0
 71
     1
 74
     0
110
0.0
120
0.0
130
0.0
111
1.0
121
0.0
131
0.0
112
0.0
122
1.0
132
0.0
 79
     0
146
0.0
170
     0
  0
ENDBLK
  5
4EFE
330
4EFA
100
AcDbEntity
  8
0
100
AcDbBlockEnd
  0
BLOCK
  5
4F26
330
4F0F
100
AcDbEntity
  8
0
100
AcDbBlockBegin
  2
A$C1482487C
 70
     0
 10
0.0
 20
0.0
 30
0.0
  3
A$C1482487C
  1

  0
LWPOLYLINE
  5
4F10
330
4F0F
100
AcDbEntity
  8
Layer1
 62
     7
370
    25
100
AcDbPolyline
 90
        8
 70
     0
 43
0.0
 10
63.67249408619865
 20
-54.18059987388687
 10
33.3860673461586
 20
-92.43183788289025
 42
-0.0019026504124521
 10
63.23690586286829
 20
-89.02434051335161
 42
-0.0163522400363789
 10
107.6833882723986
 20
-87.4228746110972
 42
-0.0194060423804774
 10
160.6700221336068
 20
-89.2931617706945
 10
190.6228140756666
 20
-92.43183788289162
 10
160.6931631550614
 20
-54.36000523680718
 42
0.0618423867777145
 10
63.67249408634416
 20
-54.18059987386961
  0
MTEXT
  5
4F11
330
4F0F
100
AcDbEntity
  8
Papierlayout
 62
     7
370
    25
100
AcDbMText
 10
45.3220979576763
 20
-98.82165737961258
 30
0.0
 40
10.0
 41
150.3655035410884
 71
     1
 72
     5
  1
{\fTahoma|b0|i0|c0|p34;versteviging stand-offs}
 73
     1
 44
1.0
  0
MTEXT
  5
4F12
330
4F0F
100
AcDbEntity
  8
Papierlayout
 62
     7
370
    25
100
AcDbMText
 10
18.84738796378224
 20
-160.7228205824475
 30
0.0
 40
15.0
 41
211.0996812778121
 71
     1
 72
     5
  1
{\fTahoma|b0|i0|c0|p34;Mylar}
 73
     1
 44
1.0
  0
LINE
  5
4F13
330
4F0F
100
AcDbEntity
  8
Papierlayout
 62
     7
370
    25
100
AcDbLine
 10
20.0
 20
-190.0
 30
0.0
 11
0.0
 21
-190.0
 31
0.0
  0
LINE
  5
4F14
330
4F0F
100
AcDbEntity
  8
Papierlayout
 62
     7
370
    25
100
AcDbLine
 10
0.0
 20
-190.0
 30
0.0
 11
20.0
 21
-190.0
 31
0.0
  0
MTEXT
  5
4F15
330
4F0F
100
AcDbEntity
  8
Papierlayout
 62
     7
370
    25
100
AcDbMText
 10
8.213729060844341
 20
-4.573898202376766
 30
0.0
 40
10.0
 41
83.51930225920114
 71
     1
 72
     5
  1
{\fTahoma|b0|i0|c0|p34;17}
 73
     1
 44
1.0
  0
LWPOLYLINE
  5
4F16
330
4F0F
100
AcDbEntity
  8
Layer1
 62
     7
100
AcDbPolyline
 90
        6
 70
     1
 43
0.0
 10
385.3040703845926
 20
-105.8120586630968
 10
435.3040703845926
 20
-105.812058663095
 42
0.3328126771537579
 10
490.3040703845926
 20
-65.81205866309672
 42
0.3328126771537578
 10
435.3040703845926
 20
-25.81205866309839
 10
385.3040703845926
 20
-25.81205866309665
 42
0.3328126771537578
 10
330.3040703845927
 20
-65.81205866309672
 42
0.3328126771537579
  0
LINE
  5
4F17
330
4F0F
100
AcDbEntity
  8
Papierlayout
 62
     7
370
    25
100
AcDbLine
 10
560.0000000000036
 20
-190.0
 30
0.0
 11
540.0000000000036
 21
-190.0
 31
0.0
  0
LINE
  5
4F18
330
4F0F
100
AcDbEntity
  8
Papierlayout
 62
     7
370
    25
100
AcDbLine
 10
540.0000000000036
 20
-190.0
 30
0.0
 11
560.0000000000036
 21
-190.0
 31
0.0
  0
MTEXT
  5
4F19
330
4F0F
100
AcDbEntity
  8
Papierlayout
 62
     7
370
    25
100
AcDbMText
 10
298.8473879637841
 20
-139.1796990514967
 30
0.0
 40
15.0
 41
211.0996812778121
 71
     1
 72
     5
  1
{\fTahoma|b0|i0|c0|p34;versleten sportzak of autogordel}
 73
     1
 44
1.0
  0
LINE
  5
4F1A
330
4F0F
100
AcDbEntity
  8
Papierlayout
 62
     7
370
    25
100
AcDbLine
 10
280.0000000000018
 20
-190.0
 30
0.0
 11
300.0000000000018
 21
-190.0
 31
0.0
  0
LINE
  5
4F1B
330
4F0F
100
AcDbEntity
  8
Papierlayout
 62
     7
370
    25
100
AcDbLine
 10
300.0000000000018
 20
-190.0
 30
0.0
 11
280.0000000000018
 21
-190.0
 31
0.0
  0
LINE
  5
4F1C
330
4F0F
100
AcDbEntity
  8
Papierlayout
 62
     7
370
    25
100
AcDbLine
 10
260.0000000000018
 20
-190.0
 30
0.0
 11
280.0000000000018
 21
-190.0
 31
0.0
  0
LINE
  5
4F1D
330
4F0F
100
AcDbEntity
  8
Papierlayout
 62
     7
370
    25
100
AcDbLine
 10
280.0000000000018
 20
-190.0
 30
0.0
 11
260.0000000000018
 21
-190.0
 31
0.0
  0
LINE
  5
4F1E
330
4F0F
100
AcDbEntity
  8
Papierlayout
 62
     7
370
    25
100
AcDbLine
 10
280.0000000000018
 20
-190.0
 30
0.0
 11
280.0000000000018
 21
-170.0
 31
0.0
  0
LINE
  5
4F1F
330
4F0F
100
AcDbEntity
  8
Papierlayout
 62
     7
370
    25
100
AcDbLine
 10
280.0000000000018
 20
-190.0
 30
0.0
 11
280.0000000000018
 21
-170.0
 31
0.0
  0
MTEXT
  5
4F20
330
4F0F
100
AcDbEntity
  8
Papierlayout
 62
     7
370
    25
100
AcDbMText
 10
359.1526726792273
 20
-112.3415873422018
 30
0.0
 40
10.0
 41
150.3655035410884
 71
     1
 72
     5
  1
{\fTahoma|b0|i0|c0|p34;neusversteviging}
 73
     1
 44
1.0
  0
LINE
  5
4F21
330
4F0F
100
AcDbEntity
  8
Papierlayout
 62
     7
370
    25
100
AcDbLine
 10
560.0000000000036
 20
-190.0
 30
0.0
 11
560.0000000000036
 21
-170.0
 31
0.0
  0
LINE
  5
4F22
330
4F0F
100
AcDbEntity
  8
Papierlayout
 62
     7
370
    25
100
AcDbLine
 10
560.0000000000036
 20
-190.0
 30
0.0
 11
560.0000000000036
 21
-170.0
 31
0.0
  0
MTEXT
  5
4F23
330
4F0F
100
AcDbEntity
  8
Papierlayout
 62
     7
370
    25
100
AcDbMText
 10
288.2137290608461
 20
-4.573898202376766
 30
0.0
 40
10.0
 41
83.51930225920114
 71
     1
 72
     5
  1
{\fTahoma|b0|i0|c0|p34;18}
 73
     1
 44
1.0
  0
LINE
  5
4F24
330
4F0F
100
AcDbEntity
  8
Papierlayout
 62
     7
370
    25
100
AcDbLine
 10
280.0000000000018
 20
0.0
 30
0.0
 11
280.0000000000018
 21
-20.0
 31
0.0
  0
LINE
  5
4F25
330
4F0F
100
AcDbEntity
  8
Papierlayout
 62
     7
370
    25
100
AcDbLine
 10
560.0000000000036
 20
0.0
 30
0.0
 11
560.0000000000036
 21
-20.0
 31
0.0
  0
ENDBLK
  5
4F27
330
4F0F
100
AcDbEntity
  8
0
100
AcDbBlockEnd
  0
ENDSEC
  0
SECTION
  2
ENTITIES
  0
MTEXT
  5
49D4
330
1F
100
AcDbEntity
  8
Papierlayout
370
    25
100
AcDbMText
 10
5518.420746055734
 20
551.3747158413243
 30
0.0
 40
40.0
 41
1875.242533694422
 71
     1
 72
     5
  1
{\fArial|b0|i0|c0|p34;Blueprint "\fArial|b0|i1|c0|p34;Le Quartz par Christian Derefat"}
 73
     1
 44
1.0
  0
LINE
  5
4A7C
330
1F
100
AcDbEntity
  8
Layer1
 62
     7
370
    25
100
AcDbLine
 10
5780.178459297573
 20
333.8476265005447
 30
0.0
 11
5684.146471973838
 21
333.8476265005447
 31
0.0
  0
LINE
  5
4A7D
330
1F
100
AcDbEntity
  8
Layer1
 62
     7
370
    25
100
AcDbLine
 10
6345.180152415114
 20
98.21749193332108
 30
0.0
 11
6274.617913529031
 21
98.21749193332108
 31
0.0
  0
CIRCLE
  5
4A7E
330
1F
100
AcDbEntity
  8
Layer1
 62
     7
370
    25
100
AcDbCircle
 10
5907.96771495253
 20
-104.5435181242824
 30
0.0
 40
2.0
  0
CIRCLE
  5
4A7F
330
1F
100
AcDbEntity
  8
Layer1
 62
     7
370
    25
100
AcDbCircle
 10
5816.918505339937
 20
-142.5985211349771
 30
0.0
 40
2.0
  0
LINE
  5
4A80
330
1F
100
AcDbEntity
  8
Layer1
 62
     7
370
    25
100
AcDbLine
 10
5896.560943460956
 20
-79.00879453714606
 30
0.0
 11
5938.921600661374
 21
-102.4784167498069
 31
0.0
  0
LINE
  5
4A81
330
1F
100
AcDbEntity
  8
Layer1
 62
     7
370
    25
100
AcDbLine
 10
5807.077462061627
 20
-116.5021135356346
 30
0.0
 11
5794.012868912905
 21
-163.5099986163268
 31
0.0
  0
ARC
  5
4A82
330
1F
100
AcDbEntity
  8
Layer1
 62
     7
370
    25
100
AcDbCircle
 10
6002.807580093533
 20
-458.1120726400653
 30
0.0
 40
393.7101005360598
100
AcDbArc
 50
105.6559405764347
 51
119.8111445377531
  0
LINE
  5
4A83
330
1F
100
AcDbEntity
  8
Layer1
 62
     7
370
    25
100
AcDbLine
 10
5489.154400415112
 20
-117.1090919268476
 30
0.0
 11
5489.154400415112
 21
-97.10909192684766
 31
0.0
  0
ARC
  5
4A84
330
1F
100
AcDbEntity
  8
Layer1
 62
     7
370
    25
100
AcDbCircle
 10
5484.154400415111
 20
-97.10909192684766
 30
0.0
 40
5.0
100
AcDbArc
 50
0.0
 51
90.0
  0
ARC
  5
4A85
330
1F
100
AcDbEntity
  8
Layer1
 62
     7
370
    25
100
AcDbCircle
 10
5484.154400415111
 20
-117.1090919268476
 30
0.0
 40
5.0
100
AcDbArc
 50
270.0
 51
0.0
  0
LINE
  5
4A86
330
1F
100
AcDbEntity
  8
Layer1
 62
     7
370
    25
100
AcDbLine
 10
5484.154400415111
 20
-60.75435917164267
 30
0.0
 11
5505.092043721536
 21
-81.69200247806429
 31
0.0
  0
LINE
  5
4A87
330
1F
100
AcDbEntity
  8
Layer1
 62
     7
370
    25
100
AcDbLine
 10
5496.592043721534
 20
-361.6920024780644
 30
0.0
 11
5505.092043721536
 21
-81.69200247806429
 31
0.0
  0
LINE
  5
4A88
330
1F
100
AcDbEntity
  8
Layer1
 62
     7
370
    25
100
AcDbLine
 10
5459.154360192923
 20
242.885393073152
 30
0.0
 11
5484.154360192923
 21
207.885393073152
 31
0.0
  0
LINE
  5
4A89
330
1F
100
AcDbEntity
  8
Layer1
 62
     7
370
    25
100
AcDbLine
 10
5484.154360192923
 20
207.885393073152
 30
0.0
 11
5509.154360192923
 21
242.885393073152
 31
0.0
  0
LINE
  5
4A8A
330
1F
100
AcDbEntity
  8
Layer1
 62
     7
370
    25
100
AcDbLine
 10
5484.154360192923
 20
277.885393073152
 30
0.0
 11
5509.154360192923
 21
242.885393073152
 31
0.0
  0
LINE
  5
4A8B
330
1F
100
AcDbEntity
  8
Layer1
 62
     7
370
    25
100
AcDbLine
 10
5459.154360192923
 20
242.885393073152
 30
0.0
 11
5484.154360192923
 21
277.885393073152
 31
0.0
  0
LINE
  5
4A8C
330
1F
100
AcDbEntity
  8
Layer1
 62
     7
370
    25
100
AcDbLine
 10
6395.297913463828
 20
75.6414320237809
 30
0.0
 11
6415.798829950682
 21
121.2455833432295
 31
0.0
  0
LINE
  5
4A8D
330
1F
100
AcDbEntity
  8
Layer1
 62
     7
370
    25
100
AcDbLine
 10
6331.452436094111
 20
104.3425647441645
 30
0.0
 11
6351.953352580967
 21
149.9467160636131
 31
0.0
  0
LINE
  5
4A8E
330
1F
100
AcDbEntity
  8
Layer1
 62
     7
370
    25
100
AcDbLine
 10
5794.199512079889
 20
328.4032124582727
 30
0.0
 11
5812.495273211106
 21
374.9356991062924
 31
0.0
  0
LINE
  5
4A8F
330
1F
100
AcDbEntity
  8
Layer1
 62
     7
370
    25
100
AcDbLine
 10
5766.226798802101
 20
339.4015948184005
 30
0.0
 11
5784.522559933318
 21
385.9340814664201
 31
0.0
  0
LWPOLYLINE
  5
4A90
330
1F
100
AcDbEntity
  8
Layer1
 62
     7
370
    25
100
AcDbPolyline
 90
        8
 70
   128
 43
0.0
 10
6724.95626003715
 20
-89.28389235331497
 42
0.1230958605318326
 10
5996.078925834807
 20
-72.09780254547012
 10
5906.293531204616
 20
-99.30386520959835
 42
0.0176759287345399
 10
5860.259943157347
 20
-116.6104931908708
 10
5682.027683853545
 20
113.9785098546344
 10
6120.743172218876
 20
168.7016940602098
 42
-0.0048480296205175
 10
6334.924569024215
 20
75.41490417607519
 42
-0.0022850091572667
 10
6719.613789079161
 20
-100.7799255277973
  0
LINE
  5
4A91
330
1F
100
AcDbEntity
  8
Layer1
 62
     7
370
    25
100
AcDbLine
 10
5480.173348415113
 20
427.1039409024852
 30
0.0
 11
5480.173348415113
 21
427.8923600731523
 31
0.0
  0
LINE
  5
4A92
330
1F
100
AcDbEntity
  8
Layer1
 62
     7
370
    25
100
AcDbLine
 10
5508.164657428189
 20
427.8923600731514
 30
0.0
 11
5480.173348415113
 21
427.8923600731523
 31
0.0
  0
LWPOLYLINE
  5
4A93
330
1F
100
AcDbEntity
  8
Layer1
 62
     7
370
    25
100
AcDbPolyline
 90
        5
 70
   129
 43
0.0
 10
5676.34418171037
 20
121.3315732008577
 10
6106.03193678772
 20
174.9286829349803
 42
0.0075010956020381
 10
5771.007955780053
 20
310.5898729561841
 42
0.0244801819911086
 10
5498.833786671966
 20
404.5725794805748
 10
5553.643449310058
 20
280.0763462720133
  0
ARC
  5
4A94
330
1F
100
AcDbEntity
  8
Layer1
 62
     7
370
    25
100
AcDbCircle
 10
4675.712472908553
 20
-2420.288857208044
 30
0.0
 40
2942.341046456391
100
AcDbArc
 50
68.14536288244624
 51
73.95776589911815
  0
ARC
  5
4A95
330
1F
100
AcDbEntity
  8
Layer1
 62
     7
370
    25
100
AcDbCircle
 10
1417.395165099173
 20
-10922.44738571547
 30
0.0
 40
12047.20176579963
100
AcDbArc
 50
67.01998697588464
 51
68.81505466166186
  0
LWPOLYLINE
  5
4A96
330
1F
100
AcDbEntity
  8
Layer1
 62
     7
370
    25
100
AcDbPolyline
 90
        7
 70
   129
 43
0.0
 10
5480.173348415113
 20
427.8923600731523
 10
5480.173348415113
 20
427.1039409024861
 10
5546.715697388601
 20
275.9577488386858
 10
5672.805617198133
 20
112.8281952071611
 10
6170.072343216761
 20
174.8547690776485
 42
0.0087203914304626
 10
5780.178459297573
 20
333.8476265005447
 42
0.0242626078070439
 10
5508.164657428189
 20
427.8923600731523
  0
LWPOLYLINE
  5
4A98
330
1F
100
AcDbEntity
  8
Layer1
 62
     7
370
    25
100
AcDbPolyline
 90
        9
 70
   128
 43
0.0
 10
6730.149672298266
 20
-78.10845149972056
 10
6719.613854855182
 20
-100.7799435283873
 42
0.1226608382489986
 10
5999.267069764519
 20
-84.19300829692337
 10
5910.098952298266
 20
-111.2120284997204
 42
0.0194060423804774
 10
5860.540737323568
 20
-130.0551882804675
 10
5667.122115054961
 20
120.1812585533844
 10
6155.473369008127
 20
181.0957608580029
 42
-0.0042872360064841
 10
6345.180233296582
 20
98.21456336120537
 42
-0.0022854390510391
 10
6730.149672308392
 20
-78.1084515044199
  0
LINE
  5
4A9A
330
1F
100
AcDbEntity
  8
Layer1
 62
     7
370
    25
100
AcDbLine
 10
5480.154400415112
 20
-107.1090919268476
 30
0.0
 11
5509.733989415112
 21
-107.1090919268476
 31
0.0
  0
CIRCLE
  5
4A9B
330
1F
100
AcDbEntity
  8
Layer1
 62
     7
370
    25
100
AcDbCircle
 10
6007.964366734004
 20
242.8915940731531
 30
0.0
 40
14.81901106805981
  0
LINE
  5
4C0D
330
1F
100
AcDbEntity
  8
Layer1
 62
     7
370
    25
100
AcDbLine
 10
5484.092043721535
 20
-361.6920024780644
 30
0.0
 11
5496.592043721534
 21
-361.6920024780644
 31
0.0
  0
LINE
  5
4E27
330
1F
100
AcDbEntity
  8
Layer1
 62
     7
100
AcDbLine
 10
5816.918505339937
 20
-142.5985211349775
 30
0.0
 11
5839.436878441007
 21
-187.3783105718491
 31
0.0
  0
LINE
  5
4E28
330
1F
100
AcDbEntity
  8
Layer1
 62
     7
100
AcDbLine
 10
5924.291941831716
 20
-151.9122180429204
 30
0.0
 11
5907.96771495253
 21
-104.5435181242834
 31
0.0
  0
LINE
  5
4E30
330
1F
100
AcDbEntity
  8
Layer1
 62
     7
100
AcDbLine
 10
5480.092043721254
 20
-361.6920024782626
 30
0.0
 11
5487.092043721252
 21
-361.6920024782626
 31
0.0
  0
LWPOLYLINE
  5
4E61
330
1F
100
AcDbEntity
  8
Layer1
 62
     7
370
    25
100
AcDbPolyline
 90
        6
 70
     1
 43
0.0
 10
5480.173348415113
 20
427.8923600731524
 10
5488.568038315086
 20
427.8932383647862
 10
5553.643368426906
 20
280.079274844886
 10
5761.310379532563
 20
11.40889360559026
 10
5485.319668161138
 20
-296.9901920708251
 10
5480.118258508092
 20
-107.1090919268474
  0
LWPOLYLINE
  5
4E7D
330
1F
100
AcDbEntity
  8
Layer1
 62
     7
370
    25
100
AcDbPolyline
 90
        5
 70
     1
 43
0.0
 10
5820.200654415104
 20
-148.7830339268531
 42
-0.0193086679796348
 10
5868.181914855073
 20
-126.8567653734332
 10
5756.335070267689
 20
17.84572837226721
 10
5485.000811805635
 20
-285.3501176276768
 10
5486.960789747088
 20
-356.900484279358
 42
-0.0248959381519085
  0
ARC
  5
4E80
330
1F
100
AcDbEntity
  8
Layer1
 62
     7
370
    25
100
AcDbCircle
 10
5484.154400415111
 20
-117.1090919268476
 30
0.0
 40
5.0
100
AcDbArc
 50
244.6307539770581
 51
270.0
  0
ARC
  5
4E81
330
1F
100
AcDbEntity
  8
Layer1
 62
     7
370
    25
100
AcDbCircle
 10
5484.154400415111
 20
-97.10909192684766
 30
0.0
 40
5.0
100
AcDbArc
 50
90.0
 51
115.3692460229419
  0
LWPOLYLINE
  5
4E83
330
1F
100
AcDbEntity
  8
Layer1
 62
     7
370
    25
100
AcDbPolyline
 90
        5
 70
     1
 43
0.0
 10
5488.171396872484
 20
408.9396900459722
 10
5546.71561650545
 20
275.9606774115588
 10
5750.909756130162
 20
11.78334347820231
 10
5492.766119624413
 20
-276.6729638951943
 10
5488.11826978877
 20
-106.9999523532591
  0
LWPOLYLINE
  5
4E9A
330
1F
100
AcDbEntity
  8
Layer1
 62
     7
370
    25
100
AcDbPolyline
 90
        5
 70
     1
 43
0.0
 10
5852.643813930295
 20
-119.8356746251358
 42
0.015102752193017
 10
5814.570219571532
 20
-137.622917284439
 42
0.0238357677974143
 10
5494.405984511886
 20
-336.5373794461547
 10
5493.084975979915
 20
-288.3130383383437
 10
5755.885065395036
 20
5.346508711523711
  0
VIEWPORT
  5
678
330
676
100
AcDbEntity
 67
     1
  8
0
100
AcDbViewport
 10
175.4677275589921
 20
124.8698005882729
 30
0.0
 40
567.9053253733956
 41
275.3588872712114
 68
     1
 69
     1
 12
175.4677275589921
 22
124.8698005882729
 13
0.0
 23
0.0
 14
10.0
 24
10.0
 15
10.0
 25
10.0
 16
0.0
 26
0.0
 36
1.0
 17
0.0
 27
0.0
 37
0.0
 42
50.0
 43
0.0
 44
0.0
 45
275.3588872712114
 50
0.0
 51
0.0
 72
  1000
 90
    32800
  1

281
     0
 71
     1
 74
     0
110
0.0
120
0.0
130
0.0
111
1.0
121
0.0
131
0.0
112
0.0
122
1.0
132
0.0
 79
     0
146
0.0
170
     0
  0
VIEWPORT
  5
679
330
676
100
AcDbEntity
 67
     1
  8
Vieuwports
100
AcDbViewport
 10
143.8993272985268
 20
98.18158049921876
 30
0.0
 40
284.5264821757025
 41
193.9199916748989
 68
     2
 69
     2
 12
10696.5724165621
 22
173.5723296484939
 13
0.0
 23
0.0
 14
10.0
 24
10.0
 15
10.0
 25
10.0
 16
0.0
 26
0.0
 36
1.0
 17
0.0
 27
0.0
 37
0.0
 42
50.0
 43
0.0
 44
0.0
 45
193.9199924152009
 50
0.0
 51
0.0
 72
  1000
 90
    32864
  1

281
     0
 71
     1
 74
     0
110
0.0
120
0.0
130
0.0
111
1.0
121
0.0
131
0.0
112
0.0
122
1.0
132
0.0
 79
     0
146
0.0
170
     0
  0
ENDSEC
  0
SECTION
  2
OBJECTS
  0
DICTIONARY
  5
C
330
0
100
AcDbDictionary
281
     1
  3
ACAD_COLOR
350
6B
  3
ACAD_GROUP
350
D
  3
ACAD_LAYOUT
350
1A
  3
ACAD_MATERIAL
350
6A
  3
ACAD_MLINESTYLE
350
17
  3
ACAD_PLOTSETTINGS
350
19
  3
ACAD_PLOTSTYLENAME
350
E
  3
AcDbVariableDictionary
350
5E
  3
ASE_INDEX_DICTIONARY
350
2583
  0
DICTIONARY
  5
6B
102
{ACAD_REACTORS
330
C
102
}
330
C
100
AcDbDictionary
281
     1
  0
DICTIONARY
  5
D
102
{ACAD_REACTORS
330
C
102
}
330
C
100
AcDbDictionary
281
     1
  0
DICTIONARY
  5
1A
102
{ACAD_REACTORS
330
C
102
}
330
C
100
AcDbDictionary
281
     1
  3
Lay-out Bouwplan
350
F4F
  3
Lay-out Mallen
350
F59
  3
Mallen 1
350
3052
  3
Mallen 10
350
671
  3
Mallen 11
350
6A6
  3
Mallen 12
350
6BB
  3
Mallen 13
350
6C6
  3
Mallen 14
350
739
  3
Mallen 15
350
71B
  3
Mallen 16
350
711
  3
Mallen 17
350
4EFF
  3
Mallen 18
350
4F05
  3
Mallen 2
350
64D
  3
Mallen 3
350
67B
  3
Mallen 4
350
687
  3
Mallen 5
350
691
  3
Mallen 6
350
69B
  3
Mallen 7
350
6B1
  3
Mallen 8
350
65B
  3
Mallen 9
350
666
  3
Model
350
22
  3
Plan 1
350
F3B
  3
Plan 10
350
48EA
  3
Plan 11
350
48F0
  3
Plan 12
350
48F6
  3
Plan 13
350
48FC
  3
Plan 14
350
4902
  3
Plan 2
350
489A
  3
Plan 3
350
48A0
  3
Plan 4
350
48A6
  3
Plan 5
350
48AC
  3
Plan 6
350
48B2
  3
Plan 7
350
48B8
  3
Plan 8
350
48BE
  3
Plan 9
350
48E4
  0
DICTIONARY
  5
6A
102
{ACAD_REACTORS
330
C
102
}
330
C
100
AcDbDictionary
281
     1
  0
DICTIONARY
  5
17
102
{ACAD_REACTORS
330
C
102
}
330
C
100
AcDbDictionary
281
     1
  3
Standard
350
18
  0
DICTIONARY
  5
19
102
{ACAD_REACTORS
330
C
102
}
330
C
100
AcDbDictionary
281
     1
  0
ACDBDICTIONARYWDFLT
  5
E
102
{ACAD_REACTORS
330
C
102
}
330
C
100
AcDbDictionary
281
     1
  3
Normal
350
F
100
AcDbDictionaryWithDefault
340
F
  0
DICTIONARY
  5
5E
102
{ACAD_REACTORS
330
C
102
}
330
C
100
AcDbDictionary
281
     1
  3
DIMASSOC
350
5F
  3
HIDETEXT
350
63
  0
DICTIONARY
  5
2583
102
{ACAD_REACTORS
330
C
102
}
330
C
100
AcDbDictionary
281
     1
  3
ASEBlockHierarchyIndexRecord
350
2585
1001
DCO15
1040
1574926031.052
  0
LAYOUT
  5
F4F
102
{ACAD_REACTORS
330
1A
102
}
330
1A
100
AcDbPlotSettings
  1

  2
\\PC-TOM\HP LaserJet 4L
  4
A4
  6

 40
6.805083274841307
 41
5.027085304260253
 42
6.805084228515625
 43
5.027069091796875
 44
209.9733276367186
 45
296.9259948730469
 46
0.0
 47
0.0
 48
0.0
 49
0.0
140
0.0
141
0.0
142
1.0
143
1.0
 70
   688
 72
     1
 73
     1
 74
     5
  7
monochrome.ctb
 75
    16
147
1.0
 76
     1
 77
     2
 78
   150
148
0.0
149
0.0
100
AcDbLayout
  1
Lay-out Bouwplan
 70
     1
 71
     1
 10
-5.027069091796875
 20
-6.805083274841307
 11
291.89892578125
 21
203.1682443618775
 12
0.0
 22
0.0
 32
0.0
 14
1.636086210675557
 24
1.221584661769313
 34
0.0
 15
286.1625683863781
 25
195.1415763366682
 35
0.0
146
0.0
 13
0.0
 23
0.0
 33
0.0
 16
1.0
 26
0.0
 36
0.0
 17
0.0
 27
1.0
 37
0.0
 76
     0
330
F4A
331
F4C
  0
LAYOUT
  5
F59
102
{ACAD_REACTORS
330
1A
102
}
330
1A
100
AcDbPlotSettings
  1

  2
\\PC-TOM\HP LaserJet 4L
  4
A4
  6

 40
6.805083274841307
 41
5.027085304260253
 42
6.805084228515625
 43
5.027069091796875
 44
209.9733276367186
 45
296.9259948730469
 46
0.0
 47
0.0
 48
0.0
 49
0.0
140
0.0
141
0.0
142
1.0
143
1.0
 70
   688
 72
     1
 73
     1
 74
     5
  7
monochrome.ctb
 75
    16
147
1.0
 76
     1
 77
     2
 78
   150
148
0.0
149
0.0
100
AcDbLayout
  1
Lay-out Mallen
 70
     1
 71
    16
 10
-5.027069091796875
 20
-6.805083274841307
 11
291.89892578125
 21
203.1682443618775
 12
0.0
 22
0.0
 32
0.0
 14
1.636086210675557
 24
1.221584661769313
 34
0.0
 15
286.1625683863781
 25
195.1415763366682
 35
0.0
146
0.0
 13
0.0
 23
0.0
 33
0.0
 16
1.0
 26
0.0
 36
0.0
 17
0.0
 27
1.0
 37
0.0
 76
     0
330
F54
331
F56
  0
LAYOUT
  5
3052
102
{ACAD_REACTORS
330
1A
102
}
330
1A
100
AcDbPlotSettings
  1

  2
\\PC-TOM\HP LaserJet 4L
  4
A4
  6

 40
6.805083274841307
 41
5.027085304260253
 42
6.805084228515625
 43
5.027069091796875
 44
209.9733276367186
 45
296.9259948730469
 46
0.0
 47
0.0
 48
0.0
 49
0.0
140
0.0
141
0.0
142
1.0
143
1.0
 70
   688
 72
     1
 73
     1
 74
     5
  7
monochrome.ctb
 75
    16
147
1.0
 76
     1
 77
     2
 78
   150
148
0.0
149
0.0
100
AcDbLayout
  1
Mallen 1
 70
     1
 71
    17
 10
-5.027069091796875
 20
-6.805083274841307
 11
291.89892578125
 21
203.1682443618775
 12
0.0
 22
0.0
 32
0.0
 14
1.636086210675557
 24
1.221584661769313
 34
0.0
 15
286.1625683863781
 25
195.1415763366682
 35
0.0
146
0.0
 13
0.0
 23
0.0
 33
0.0
 16
1.0
 26
0.0
 36
0.0
 17
0.0
 27
1.0
 37
0.0
 76
     0
330
304D
331
304F
  0
LAYOUT
  5
671
102
{ACAD_REACTORS
330
1A
102
}
330
1A
100
AcDbPlotSettings
  1

  2
\\PC-TOM\HP LaserJet 4L
  4
A4
  6

 40
6.805083274841307
 41
5.027085304260253
 42
6.805084228515625
 43
5.027069091796875
 44
209.9733276367186
 45
296.9259948730469
 46
0.0
 47
0.0
 48
0.0
 49
0.0
140
0.0
141
0.0
142
1.0
143
1.0
 70
   688
 72
     1
 73
     1
 74
     5
  7
monochrome.ctb
 75
    16
147
1.0
 76
     1
 77
     2
 78
   150
148
0.0
149
0.0
100
AcDbLayout
  1
Mallen 10
 70
     1
 71
    26
 10
-5.027069091796875
 20
-6.805083274841307
 11
291.89892578125
 21
203.1682443618775
 12
0.0
 22
0.0
 32
0.0
 14
1.636086210675556
 24
1.22158466176927
 34
0.0
 15
286.1625683863782
 25
195.1415763366682
 35
0.0
146
0.0
 13
0.0
 23
0.0
 33
0.0
 16
1.0
 26
0.0
 36
0.0
 17
0.0
 27
1.0
 37
0.0
 76
     0
330
66C
331
66E
  0
LAYOUT
  5
6A6
102
{ACAD_REACTORS
330
1A
102
}
330
1A
100
AcDbPlotSettings
  1

  2
\\PC-TOM\HP LaserJet 4L
  4
A4
  6

 40
6.805083274841307
 41
5.027085304260253
 42
6.805084228515625
 43
5.027069091796875
 44
209.9733276367186
 45
296.9259948730469
 46
0.0
 47
0.0
 48
0.0
 49
0.0
140
0.0
141
0.0
142
1.0
143
1.0
 70
   688
 72
     1
 73
     1
 74
     5
  7
monochrome.ctb
 75
    16
147
1.0
 76
     1
 77
     2
 78
   150
148
0.0
149
0.0
100
AcDbLayout
  1
Mallen 11
 70
     1
 71
    27
 10
-5.027069091796875
 20
-6.805083274841307
 11
291.89892578125
 21
203.1682443618775
 12
0.0
 22
0.0
 32
0.0
 14
1.636086210675556
 24
1.22158466176927
 34
0.0
 15
286.1625683863782
 25
195.1415763366682
 35
0.0
146
0.0
 13
0.0
 23
0.0
 33
0.0
 16
1.0
 26
0.0
 36
0.0
 17
0.0
 27
1.0
 37
0.0
 76
     0
330
6A1
331
6A3
  0
LAYOUT
  5
6BB
102
{ACAD_REACTORS
330
1A
102
}
330
1A
100
AcDbPlotSettings
  1

  2
\\PC-TOM\HP LaserJet 4L
  4
A4
  6

 40
6.805083274841307
 41
5.027085304260253
 42
6.805084228515625
 43
5.027069091796875
 44
209.9733276367186
 45
296.9259948730469
 46
0.0
 47
0.0
 48
0.0
 49
0.0
140
0.0
141
0.0
142
1.0
143
1.0
 70
   688
 72
     1
 73
     1
 74
     5
  7
monochrome.ctb
 75
    16
147
1.0
 76
     1
 77
     2
 78
   150
148
0.0
149
0.0
100
AcDbLayout
  1
Mallen 12
 70
     1
 71
    28
 10
-5.027069091796875
 20
-6.805083274841307
 11
291.89892578125
 21
203.1682443618775
 12
0.0
 22
0.0
 32
0.0
 14
1.636086210675556
 24
1.22158466176927
 34
0.0
 15
286.1625683863782
 25
195.1415763366682
 35
0.0
146
0.0
 13
0.0
 23
0.0
 33
0.0
 16
1.0
 26
0.0
 36
0.0
 17
0.0
 27
1.0
 37
0.0
 76
     0
330
6B6
331
6B8
  0
LAYOUT
  5
6C6
102
{ACAD_REACTORS
330
1A
102
}
330
1A
100
AcDbPlotSettings
  1

  2
\\PC-TOM\HP LaserJet 4L
  4
A4
  6

 40
6.805083274841307
 41
5.027085304260253
 42
6.805084228515625
 43
5.027069091796875
 44
209.9733276367186
 45
296.9259948730469
 46
0.0
 47
0.0
 48
0.0
 49
0.0
140
0.0
141
0.0
142
1.0
143
1.0
 70
   688
 72
     1
 73
     1
 74
     5
  7
monochrome.ctb
 75
    16
147
1.0
 76
     1
 77
     2
 78
   150
148
0.0
149
0.0
100
AcDbLayout
  1
Mallen 13
 70
     1
 71
    29
 10
-5.027069091796875
 20
-6.805083274841307
 11
291.89892578125
 21
203.1682443618775
 12
0.0
 22
0.0
 32
0.0
 14
1.636086210675556
 24
1.22158466176927
 34
0.0
 15
286.1625683863782
 25
195.1415763366682
 35
0.0
146
0.0
 13
0.0
 23
0.0
 33
0.0
 16
1.0
 26
0.0
 36
0.0
 17
0.0
 27
1.0
 37
0.0
 76
     0
330
6C1
331
6C3
  0
LAYOUT
  5
739
102
{ACAD_REACTORS
330
1A
102
}
330
1A
100
AcDbPlotSettings
  1

  2
\\PC-TOM\HP LaserJet 4L
  4
A4
  6

 40
6.805083274841307
 41
5.027085304260253
 42
6.805084228515625
 43
5.027069091796875
 44
209.9733276367186
 45
296.9259948730469
 46
0.0
 47
0.0
 48
0.0
 49
0.0
140
0.0
141
0.0
142
1.0
143
1.0
 70
   688
 72
     1
 73
     1
 74
     5
  7
monochrome.ctb
 75
    16
147
1.0
 76
     1
 77
     2
 78
   150
148
0.0
149
0.0
100
AcDbLayout
  1
Mallen 14
 70
     1
 71
    30
 10
-5.027069091796875
 20
-6.805083274841307
 11
291.89892578125
 21
203.1682443618775
 12
0.0
 22
0.0
 32
0.0
 14
1.636086210675556
 24
1.22158466176927
 34
0.0
 15
286.1625683863782
 25
195.1415763366682
 35
0.0
146
0.0
 13
0.0
 23
0.0
 33
0.0
 16
1.0
 26
0.0
 36
0.0
 17
0.0
 27
1.0
 37
0.0
 76
     0
330
734
331
736
  0
LAYOUT
  5
71B
102
{ACAD_REACTORS
330
1A
102
}
330
1A
100
AcDbPlotSettings
  1

  2
\\PC-TOM\HP LaserJet 4L
  4
A4
  6

 40
6.805083274841307
 41
5.027085304260253
 42
6.805084228515625
 43
5.027069091796875
 44
209.9733276367186
 45
296.9259948730469
 46
0.0
 47
0.0
 48
0.0
 49
0.0
140
0.0
141
0.0
142
1.0
143
1.0
 70
   688
 72
     1
 73
     1
 74
     5
  7
monochrome.ctb
 75
    16
147
1.0
 76
     1
 77
     2
 78
   150
148
0.0
149
0.0
100
AcDbLayout
  1
Mallen 15
 70
     1
 71
    31
 10
-5.027069091796875
 20
-6.805083274841307
 11
291.89892578125
 21
203.1682443618775
 12
0.0
 22
0.0
 32
0.0
 14
1.636086210675556
 24
1.22158466176927
 34
0.0
 15
286.1625683863782
 25
195.1415763366682
 35
0.0
146
0.0
 13
0.0
 23
0.0
 33
0.0
 16
1.0
 26
0.0
 36
0.0
 17
0.0
 27
1.0
 37
0.0
 76
     0
330
716
331
718
  0
LAYOUT
  5
711
102
{ACAD_REACTORS
330
1A
102
}
330
1A
100
AcDbPlotSettings
  1

  2
\\PC-TOM\HP LaserJet 4L
  4
A4
  6

 40
6.805083274841307
 41
5.027085304260253
 42
6.805084228515625
 43
5.027069091796875
 44
209.9733276367186
 45
296.9259948730469
 46
0.0
 47
0.0
 48
0.0
 49
0.0
140
0.0
141
0.0
142
1.0
143
1.0
 70
   688
 72
     1
 73
     1
 74
     5
  7
monochrome.ctb
 75
    16
147
1.0
 76
     1
 77
     2
 78
   150
148
0.0
149
0.0
100
AcDbLayout
  1
Mallen 16
 70
     1
 71
    32
 10
-5.027069091796875
 20
-6.805083274841307
 11
291.89892578125
 21
203.1682443618775
 12
0.0
 22
0.0
 32
0.0
 14
1.636086210675556
 24
1.22158466176927
 34
0.0
 15
286.1625683863782
 25
195.1415763366682
 35
0.0
146
0.0
 13
0.0
 23
0.0
 33
0.0
 16
1.0
 26
0.0
 36
0.0
 17
0.0
 27
1.0
 37
0.0
 76
     0
330
70C
331
70E
  0
LAYOUT
  5
4EFF
102
{ACAD_REACTORS
330
1A
102
}
330
1A
100
AcDbPlotSettings
  1

  2
\\PC-TOM\HP LaserJet 4L
  4
A4
  6

 40
6.805083274841307
 41
5.027085304260253
 42
6.805084228515625
 43
5.027069091796875
 44
209.9733276367186
 45
296.9259948730469
 46
0.0
 47
0.0
 48
0.0
 49
0.0
140
0.0
141
0.0
142
1.0
143
1.0
 70
   688
 72
     1
 73
     1
 74
     5
  7
monochrome.ctb
 75
    16
147
1.0
 76
     1
 77
     2
 78
   150
148
0.0
149
0.0
100
AcDbLayout
  1
Mallen 17
 70
     1
 71
    33
 10
-5.027069091796875
 20
-6.805083274841307
 11
291.89892578125
 21
203.1682443618775
 12
0.0
 22
0.0
 32
0.0
 14
1.636086210675556
 24
1.22158466176927
 34
0.0
 15
286.1625683863782
 25
195.1415763366682
 35
0.0
146
0.0
 13
0.0
 23
0.0
 33
0.0
 16
1.0
 26
0.0
 36
0.0
 17
0.0
 27
1.0
 37
0.0
 76
     0
330
4EFA
331
4EFC
  0
LAYOUT
  5
4F05
102
{ACAD_REACTORS
330
1A
102
}
330
1A
100
AcDbPlotSettings
  1

  2
\\PC-TOM\HP LaserJet 4L
  4
A4
  6

 40
6.805083274841307
 41
5.027085304260253
 42
6.805084228515625
 43
5.027069091796875
 44
209.9733276367186
 45
296.9259948730469
 46
0.0
 47
0.0
 48
0.0
 49
0.0
140
0.0
141
0.0
142
1.0
143
1.0
 70
   688
 72
     1
 73
     1
 74
     5
  7
monochrome.ctb
 75
    16
147
1.0
 76
     1
 77
     2
 78
   150
148
0.0
149
0.0
100
AcDbLayout
  1
Mallen 18
 70
     1
 71
    34
 10
-5.027069091796875
 20
-6.805083274841307
 11
291.89892578125
 21
203.1682443618775
 12
0.0
 22
0.0
 32
0.0
 14
1.636086210675556
 24
1.22158466176927
 34
0.0
 15
286.1625683863782
 25
195.1415763366682
 35
0.0
146
0.0
 13
0.0
 23
0.0
 33
0.0
 16
1.0
 26
0.0
 36
0.0
 17
0.0
 27
1.0
 37
0.0
 76
     0
330
4F00
331
4F02
  0
LAYOUT
  5
64D
102
{ACAD_REACTORS
330
1A
102
}
330
1A
100
AcDbPlotSettings
  1

  2
\\PC-TOM\HP LaserJet 4L
  4
A4
  6

 40
6.805083274841307
 41
5.027085304260253
 42
6.805084228515625
 43
5.027069091796875
 44
209.9733276367186
 45
296.9259948730469
 46
0.0
 47
0.0
 48
0.0
 49
0.0
140
0.0
141
0.0
142
1.0
143
1.0
 70
   688
 72
     1
 73
     1
 74
     5
  7
monochrome.ctb
 75
    16
147
1.0
 76
     1
 77
     2
 78
   150
148
0.0
149
0.0
100
AcDbLayout
  1
Mallen 2
 70
     1
 71
    18
 10
-5.027069091796875
 20
-6.805083274841307
 11
291.89892578125
 21
203.1682443618775
 12
0.0
 22
0.0
 32
0.0
 14
1.636086210675557
 24
1.221584661769313
 34
0.0
 15
286.1625683863781
 25
195.1415763366682
 35
0.0
146
0.0
 13
0.0
 23
0.0
 33
0.0
 16
1.0
 26
0.0
 36
0.0
 17
0.0
 27
1.0
 37
0.0
 76
     0
330
648
331
64A
  0
LAYOUT
  5
67B
102
{ACAD_REACTORS
330
1A
102
}
330
1A
100
AcDbPlotSettings
  1

  2
Brother HL-2030 series
  4
A4
  6

 40
6.720416545867919
 41
5.027085304260253
 42
6.889755249023437
 43
5.027069091796875
 44
209.9733276367186
 45
296.9259948730469
 46
0.0
 47
0.0
 48
0.0
 49
0.0
140
0.0
141
0.0
142
1.0
143
1.0
 70
   688
 72
     1
 73
     1
 74
     5
  7
monochrome.ctb
 75
    16
147
1.0
 76
     1
 77
     2
 78
   300
148
0.0
149
0.0
100
AcDbLayout
  1
Mallen 3
 70
     1
 71
    19
 10
-5.027069091796875
 20
-6.720416545867919
 11
291.89892578125
 21
203.2529110908508
 12
0.0
 22
0.0
 32
0.0
 14
1.636086210675557
 24
1.221584661769313
 34
0.0
 15
286.1625683863781
 25
195.1415763366682
 35
0.0
146
0.0
 13
0.0
 23
0.0
 33
0.0
 16
1.0
 26
0.0
 36
0.0
 17
0.0
 27
1.0
 37
0.0
 76
     0
330
676
331
678
  0
LAYOUT
  5
687
102
{ACAD_REACTORS
330
1A
102
}
330
1A
100
AcDbPlotSettings
  1

  2
\\PC-TOM\HP LaserJet 4L
  4
A4
  6

 40
6.805083274841307
 41
5.027085304260253
 42
6.805084228515625
 43
5.027069091796875
 44
209.9733276367186
 45
296.9259948730469
 46
0.0
 47
0.0
 48
0.0
 49
0.0
140
0.0
141
0.0
142
1.0
143
1.0
 70
   688
 72
     1
 73
     1
 74
     5
  7
monochrome.ctb
 75
    16
147
1.0
 76
     1
 77
     2
 78
   150
148
0.0
149
0.0
100
AcDbLayout
  1
Mallen 4
 70
     1
 71
    20
 10
-5.027069091796875
 20
-6.805083274841307
 11
291.89892578125
 21
203.1682443618775
 12
0.0
 22
0.0
 32
0.0
 14
1.636086210675556
 24
1.22158466176927
 34
0.0
 15
286.1625683863782
 25
195.1415763366682
 35
0.0
146
0.0
 13
0.0
 23
0.0
 33
0.0
 16
1.0
 26
0.0
 36
0.0
 17
0.0
 27
1.0
 37
0.0
 76
     0
330
682
331
684
  0
LAYOUT
  5
691
102
{ACAD_REACTORS
330
1A
102
}
330
1A
100
AcDbPlotSettings
  1

  2
\\PC-TOM\HP LaserJet 4L
  4
A4
  6

 40
6.805083274841307
 41
5.027085304260253
 42
6.805084228515625
 43
5.027069091796875
 44
209.9733276367186
 45
296.9259948730469
 46
0.0
 47
0.0
 48
0.0
 49
0.0
140
0.0
141
0.0
142
1.0
143
1.0
 70
   688
 72
     1
 73
     1
 74
     5
  7
monochrome.ctb
 75
    16
147
1.0
 76
     1
 77
     2
 78
   150
148
0.0
149
0.0
100
AcDbLayout
  1
Mallen 5
 70
     1
 71
    21
 10
-5.027069091796875
 20
-6.805083274841307
 11
291.89892578125
 21
203.1682443618775
 12
0.0
 22
0.0
 32
0.0
 14
1.636086210675556
 24
1.22158466176927
 34
0.0
 15
286.1625683863782
 25
195.1415763366682
 35
0.0
146
0.0
 13
0.0
 23
0.0
 33
0.0
 16
1.0
 26
0.0
 36
0.0
 17
0.0
 27
1.0
 37
0.0
 76
     0
330
68C
331
68E
  0
LAYOUT
  5
69B
102
{ACAD_REACTORS
330
1A
102
}
330
1A
100
AcDbPlotSettings
  1

  2
\\PC-TOM\HP LaserJet 4L
  4
A4
  6

 40
6.805083274841307
 41
5.027085304260253
 42
6.805084228515625
 43
5.027069091796875
 44
209.9733276367186
 45
296.9259948730469
 46
0.0
 47
0.0
 48
0.0
 49
0.0
140
0.0
141
0.0
142
1.0
143
1.0
 70
   688
 72
     1
 73
     1
 74
     5
  7
monochrome.ctb
 75
    16
147
1.0
 76
     1
 77
     2
 78
   150
148
0.0
149
0.0
100
AcDbLayout
  1
Mallen 6
 70
     1
 71
    22
 10
-5.027069091796875
 20
-6.805083274841307
 11
291.89892578125
 21
203.1682443618775
 12
0.0
 22
0.0
 32
0.0
 14
1.636086210675556
 24
1.22158466176927
 34
0.0
 15
286.1625683863782
 25
195.1415763366682
 35
0.0
146
0.0
 13
0.0
 23
0.0
 33
0.0
 16
1.0
 26
0.0
 36
0.0
 17
0.0
 27
1.0
 37
0.0
 76
     0
330
696
331
698
  0
LAYOUT
  5
6B1
102
{ACAD_REACTORS
330
1A
102
}
330
1A
100
AcDbPlotSettings
  1

  2
\\PC-TOM\HP LaserJet 4L
  4
A4
  6

 40
6.805083274841307
 41
5.027085304260253
 42
6.805084228515625
 43
5.027069091796875
 44
209.9733276367186
 45
296.9259948730469
 46
0.0
 47
0.0
 48
0.0
 49
0.0
140
0.0
141
0.0
142
1.0
143
1.0
 70
   688
 72
     1
 73
     1
 74
     5
  7
monochrome.ctb
 75
    16
147
1.0
 76
     1
 77
     2
 78
   150
148
0.0
149
0.0
100
AcDbLayout
  1
Mallen 7
 70
     1
 71
    23
 10
-5.027069091796875
 20
-6.805083274841307
 11
291.89892578125
 21
203.1682443618775
 12
0.0
 22
0.0
 32
0.0
 14
1.636086210675556
 24
1.22158466176927
 34
0.0
 15
286.1625683863782
 25
195.1415763366682
 35
0.0
146
0.0
 13
0.0
 23
0.0
 33
0.0
 16
1.0
 26
0.0
 36
0.0
 17
0.0
 27
1.0
 37
0.0
 76
     0
330
6AC
331
6AE
  0
LAYOUT
  5
65B
102
{ACAD_REACTORS
330
1A
102
}
330
1A
100
AcDbPlotSettings
  1

  2
\\PC-TOM\HP LaserJet 4L
  4
A4
  6

 40
6.805083274841307
 41
5.027085304260253
 42
6.805084228515625
 43
5.027069091796875
 44
209.9733276367186
 45
296.9259948730469
 46
0.0
 47
0.0
 48
0.0
 49
0.0
140
0.0
141
0.0
142
1.0
143
1.0
 70
   688
 72
     1
 73
     1
 74
     5
  7
monochrome.ctb
 75
    16
147
1.0
 76
     1
 77
     2
 78
   150
148
0.0
149
0.0
100
AcDbLayout
  1
Mallen 8
 70
     1
 71
    24
 10
-5.027069091796875
 20
-6.805083274841307
 11
291.89892578125
 21
203.1682443618775
 12
0.0
 22
0.0
 32
0.0
 14
1.636086210675556
 24
1.22158466176927
 34
0.0
 15
286.1625683863782
 25
195.1415763366682
 35
0.0
146
0.0
 13
0.0
 23
0.0
 33
0.0
 16
1.0
 26
0.0
 36
0.0
 17
0.0
 27
1.0
 37
0.0
 76
     0
330
656
331
658
  0
LAYOUT
  5
666
102
{ACAD_REACTORS
330
1A
102
}
330
1A
100
AcDbPlotSettings
  1

  2
\\PC-TOM\HP LaserJet 4L
  4
A4
  6

 40
6.805083274841307
 41
5.027085304260253
 42
6.805084228515625
 43
5.027069091796875
 44
209.9733276367186
 45
296.9259948730469
 46
0.0
 47
0.0
 48
0.0
 49
0.0
140
0.0
141
0.0
142
1.0
143
1.0
 70
   688
 72
     1
 73
     1
 74
     5
  7
monochrome.ctb
 75
    16
147
1.0
 76
     1
 77
     2
 78
   150
148
0.0
149
0.0
100
AcDbLayout
  1
Mallen 9
 70
     1
 71
    25
 10
-5.027069091796875
 20
-6.805083274841307
 11
291.89892578125
 21
203.1682443618775
 12
0.0
 22
0.0
 32
0.0
 14
1.636086210675556
 24
1.22158466176927
 34
0.0
 15
286.1625683863782
 25
195.1415763366682
 35
0.0
146
0.0
 13
0.0
 23
0.0
 33
0.0
 16
1.0
 26
0.0
 36
0.0
 17
0.0
 27
1.0
 37
0.0
 76
     0
330
661
331
663
  0
LAYOUT
  5
22
102
{ACAD_REACTORS
330
1A
102
}
330
1A
100
AcDbPlotSettings
  1

  2
none_device
  4
ANSI_A_(8.50_x_11.00_Inches)
  6

 40
6.349999904632567
 41
19.04999923706055
 42
6.350006103515625
 43
19.04998779296875
 44
215.8999938964844
 45
279.3999938964844
 46
0.0
 47
0.0
 48
0.0
 49
0.0
140
0.0
141
0.0
142
1.0
143
78.436453180766
 70
 11952
 72
     0
 73
     1
 74
     0
  7

 75
     0
147
0.0127491741332998
 76
     0
 77
     2
 78
   300
148
0.0
149
0.0
100
AcDbLayout
  1
Model
 70
     1
 71
     0
 10
0.0
 20
0.0
 11
12.0
 21
9.0
 12
0.0
 22
0.0
 32
0.0
 14
0.0
 24
0.0
 34
0.0
 15
0.0
 25
0.0
 35
0.0
146
0.0
 13
0.0
 23
0.0
 33
0.0
 16
1.0
 26
0.0
 36
0.0
 17
0.0
 27
1.0
 37
0.0
 76
     0
330
1F
  0
LAYOUT
  5
F3B
102
{ACAD_REACTORS
330
1A
102
}
330
1A
100
AcDbPlotSettings
  1

  2
\\PC-TOM\HP LaserJet 4L
  4
A4
  6

 40
6.805083274841307
 41
5.027085304260253
 42
6.805084228515625
 43
5.027069091796875
 44
209.9733276367186
 45
296.9259948730469
 46
0.0
 47
0.0
 48
0.0
 49
0.0
140
0.0
141
0.0
142
1.0
143
1.0
 70
   688
 72
     1
 73
     1
 74
     5
  7
monochrome.ctb
 75
    16
147
1.0
 76
     1
 77
     2
 78
   150
148
0.0
149
0.0
100
AcDbLayout
  1
Plan 1
 70
     1
 71
     2
 10
-5.027069091796875
 20
-6.805083274841307
 11
291.89892578125
 21
203.1682443618775
 12
0.0
 22
0.0
 32
0.0
 14
1.636086210675557
 24
1.221584661769313
 34
0.0
 15
286.1625683863781
 25
195.1415763366682
 35
0.0
146
0.0
 13
0.0
 23
0.0
 33
0.0
 16
1.0
 26
0.0
 36
0.0
 17
0.0
 27
1.0
 37
0.0
 76
     0
330
F36
331
F38
  0
LAYOUT
  5
48EA
102
{ACAD_REACTORS
330
1A
102
}
330
1A
100
AcDbPlotSettings
  1

  2
\\PC-TOM\HP LaserJet 4L
  4
A4
  6

 40
6.805083274841307
 41
5.027085304260253
 42
6.805084228515625
 43
5.027069091796875
 44
209.9733276367186
 45
296.9259948730469
 46
0.0
 47
0.0
 48
0.0
 49
0.0
140
0.0
141
0.0
142
1.0
143
1.0
 70
   688
 72
     1
 73
     1
 74
     5
  7
monochrome.ctb
 75
    16
147
1.0
 76
     1
 77
     2
 78
   150
148
0.0
149
0.0
100
AcDbLayout
  1
Plan 10
 70
     1
 71
    11
 10
-5.027069091796875
 20
-6.805083274841307
 11
291.89892578125
 21
203.1682443618775
 12
0.0
 22
0.0
 32
0.0
 14
1.636086210675556
 24
1.22158466176927
 34
0.0
 15
286.1625683863782
 25
195.1415763366682
 35
0.0
146
0.0
 13
0.0
 23
0.0
 33
0.0
 16
1.0
 26
0.0
 36
0.0
 17
0.0
 27
1.0
 37
0.0
 76
     0
330
48E5
331
48E7
  0
LAYOUT
  5
48F0
102
{ACAD_REACTORS
330
1A
102
}
330
1A
100
AcDbPlotSettings
  1

  2
\\PC-TOM\HP LaserJet 4L
  4
A4
  6

 40
6.805083274841307
 41
5.027085304260253
 42
6.805084228515625
 43
5.027069091796875
 44
209.9733276367186
 45
296.9259948730469
 46
0.0
 47
0.0
 48
0.0
 49
0.0
140
0.0
141
0.0
142
1.0
143
1.0
 70
   688
 72
     1
 73
     1
 74
     5
  7
monochrome.ctb
 75
    16
147
1.0
 76
     1
 77
     2
 78
   150
148
0.0
149
0.0
100
AcDbLayout
  1
Plan 11
 70
     1
 71
    12
 10
-5.027069091796875
 20
-6.805083274841307
 11
291.89892578125
 21
203.1682443618775
 12
0.0
 22
0.0
 32
0.0
 14
1.636086210675556
 24
1.22158466176927
 34
0.0
 15
286.1625683863782
 25
195.1415763366682
 35
0.0
146
0.0
 13
0.0
 23
0.0
 33
0.0
 16
1.0
 26
0.0
 36
0.0
 17
0.0
 27
1.0
 37
0.0
 76
     0
330
48EB
331
48ED
  0
LAYOUT
  5
48F6
102
{ACAD_REACTORS
330
1A
102
}
330
1A
100
AcDbPlotSettings
  1

  2
\\PC-TOM\HP LaserJet 4L
  4
A4
  6

 40
6.805083274841307
 41
5.027085304260253
 42
6.805084228515625
 43
5.027069091796875
 44
209.9733276367186
 45
296.9259948730469
 46
0.0
 47
0.0
 48
0.0
 49
0.0
140
0.0
141
0.0
142
1.0
143
1.0
 70
   688
 72
     1
 73
     1
 74
     5
  7
monochrome.ctb
 75
    16
147
1.0
 76
     1
 77
     2
 78
   150
148
0.0
149
0.0
100
AcDbLayout
  1
Plan 12
 70
     1
 71
    13
 10
-5.027069091796875
 20
-6.805083274841307
 11
291.89892578125
 21
203.1682443618775
 12
0.0
 22
0.0
 32
0.0
 14
1.636086210675556
 24
1.22158466176927
 34
0.0
 15
286.1625683863782
 25
195.1415763366682
 35
0.0
146
0.0
 13
0.0
 23
0.0
 33
0.0
 16
1.0
 26
0.0
 36
0.0
 17
0.0
 27
1.0
 37
0.0
 76
     0
330
48F1
331
48F3
  0
LAYOUT
  5
48FC
102
{ACAD_REACTORS
330
1A
102
}
330
1A
100
AcDbPlotSettings
  1

  2
\\PC-TOM\HP LaserJet 4L
  4
A4
  6

 40
6.805083274841307
 41
5.027085304260253
 42
6.805084228515625
 43
5.027069091796875
 44
209.9733276367186
 45
296.9259948730469
 46
0.0
 47
0.0
 48
0.0
 49
0.0
140
0.0
141
0.0
142
1.0
143
1.0
 70
   688
 72
     1
 73
     1
 74
     5
  7
monochrome.ctb
 75
    16
147
1.0
 76
     1
 77
     2
 78
   150
148
0.0
149
0.0
100
AcDbLayout
  1
Plan 13
 70
     1
 71
    14
 10
-5.027069091796875
 20
-6.805083274841307
 11
291.89892578125
 21
203.1682443618775
 12
0.0
 22
0.0
 32
0.0
 14
1.636086210675556
 24
1.22158466176927
 34
0.0
 15
286.1625683863782
 25
195.1415763366682
 35
0.0
146
0.0
 13
0.0
 23
0.0
 33
0.0
 16
1.0
 26
0.0
 36
0.0
 17
0.0
 27
1.0
 37
0.0
 76
     0
330
48F7
331
48F9
  0
LAYOUT
  5
4902
102
{ACAD_REACTORS
330
1A
102
}
330
1A
100
AcDbPlotSettings
  1

  2
\\PC-TOM\HP LaserJet 4L
  4
A4
  6

 40
6.805083274841307
 41
5.027085304260253
 42
6.805084228515625
 43
5.027069091796875
 44
209.9733276367186
 45
296.9259948730469
 46
0.0
 47
0.0
 48
0.0
 49
0.0
140
0.0
141
0.0
142
1.0
143
1.0
 70
   688
 72
     1
 73
     1
 74
     5
  7
monochrome.ctb
 75
    16
147
1.0
 76
     1
 77
     2
 78
   150
148
0.0
149
0.0
100
AcDbLayout
  1
Plan 14
 70
     1
 71
    15
 10
-5.027069091796875
 20
-6.805083274841307
 11
291.89892578125
 21
203.1682443618775
 12
0.0
 22
0.0
 32
0.0
 14
1.636086210675556
 24
1.22158466176927
 34
0.0
 15
286.1625683863782
 25
195.1415763366682
 35
0.0
146
0.0
 13
0.0
 23
0.0
 33
0.0
 16
1.0
 26
0.0
 36
0.0
 17
0.0
 27
1.0
 37
0.0
 76
     0
330
48FD
331
48FF
  0
LAYOUT
  5
489A
102
{ACAD_REACTORS
330
1A
102
}
330
1A
100
AcDbPlotSettings
  1

  2
\\PC-TOM\HP LaserJet 4L
  4
A4
  6

 40
6.805083274841307
 41
5.027085304260253
 42
6.805084228515625
 43
5.027069091796875
 44
209.9733276367186
 45
296.9259948730469
 46
0.0
 47
0.0
 48
0.0
 49
0.0
140
0.0
141
0.0
142
1.0
143
1.0
 70
   688
 72
     1
 73
     1
 74
     5
  7
monochrome.ctb
 75
    16
147
1.0
 76
     1
 77
     2
 78
   150
148
0.0
149
0.0
100
AcDbLayout
  1
Plan 2
 70
     1
 71
     3
 10
-5.027069091796875
 20
-6.805083274841307
 11
291.89892578125
 21
203.1682443618775
 12
0.0
 22
0.0
 32
0.0
 14
1.636086210675556
 24
1.22158466176927
 34
0.0
 15
286.1625683863782
 25
195.1415763366682
 35
0.0
146
0.0
 13
0.0
 23
0.0
 33
0.0
 16
1.0
 26
0.0
 36
0.0
 17
0.0
 27
1.0
 37
0.0
 76
     0
330
4895
331
4897
  0
LAYOUT
  5
48A0
102
{ACAD_REACTORS
330
1A
102
}
330
1A
100
AcDbPlotSettings
  1

  2
\\PC-TOM\HP LaserJet 4L
  4
A4
  6

 40
6.805083274841307
 41
5.027085304260253
 42
6.805084228515625
 43
5.027069091796875
 44
209.9733276367186
 45
296.9259948730469
 46
0.0
 47
0.0
 48
0.0
 49
0.0
140
0.0
141
0.0
142
1.0
143
1.0
 70
   688
 72
     1
 73
     1
 74
     5
  7
monochrome.ctb
 75
    16
147
1.0
 76
     1
 77
     2
 78
   150
148
0.0
149
0.0
100
AcDbLayout
  1
Plan 3
 70
     1
 71
     4
 10
-5.027069091796875
 20
-6.805083274841307
 11
291.89892578125
 21
203.1682443618775
 12
0.0
 22
0.0
 32
0.0
 14
1.636086210675556
 24
1.22158466176927
 34
0.0
 15
286.1625683863782
 25
195.1415763366682
 35
0.0
146
0.0
 13
0.0
 23
0.0
 33
0.0
 16
1.0
 26
0.0
 36
0.0
 17
0.0
 27
1.0
 37
0.0
 76
     0
330
489B
331
489D
  0
LAYOUT
  5
48A6
102
{ACAD_REACTORS
330
1A
102
}
330
1A
100
AcDbPlotSettings
  1

  2
\\PC-TOM\HP LaserJet 4L
  4
A4
  6

 40
6.805083274841307
 41
5.027085304260253
 42
6.805084228515625
 43
5.027069091796875
 44
209.9733276367186
 45
296.9259948730469
 46
0.0
 47
0.0
 48
0.0
 49
0.0
140
0.0
141
0.0
142
1.0
143
1.0
 70
   688
 72
     1
 73
     1
 74
     5
  7
monochrome.ctb
 75
    16
147
1.0
 76
     1
 77
     2
 78
   150
148
0.0
149
0.0
100
AcDbLayout
  1
Plan 4
 70
     1
 71
     5
 10
-5.027069091796875
 20
-6.805083274841307
 11
291.89892578125
 21
203.1682443618775
 12
0.0
 22
0.0
 32
0.0
 14
1.636086210675556
 24
1.22158466176927
 34
0.0
 15
286.1625683863782
 25
195.1415763366682
 35
0.0
146
0.0
 13
0.0
 23
0.0
 33
0.0
 16
1.0
 26
0.0
 36
0.0
 17
0.0
 27
1.0
 37
0.0
 76
     0
330
48A1
331
48A3
  0
LAYOUT
  5
48AC
102
{ACAD_REACTORS
330
1A
102
}
330
1A
100
AcDbPlotSettings
  1

  2
\\PC-TOM\HP LaserJet 4L
  4
A4
  6

 40
6.805083274841307
 41
5.027085304260253
 42
6.805084228515625
 43
5.027069091796875
 44
209.9733276367186
 45
296.9259948730469
 46
0.0
 47
0.0
 48
0.0
 49
0.0
140
0.0
141
0.0
142
1.0
143
1.0
 70
   688
 72
     1
 73
     1
 74
     5
  7
monochrome.ctb
 75
    16
147
1.0
 76
     1
 77
     2
 78
   150
148
0.0
149
0.0
100
AcDbLayout
  1
Plan 5
 70
     1
 71
     6
 10
-5.027069091796875
 20
-6.805083274841307
 11
291.89892578125
 21
203.1682443618775
 12
0.0
 22
0.0
 32
0.0
 14
1.636086210675556
 24
1.22158466176927
 34
0.0
 15
286.1625683863782
 25
195.1415763366682
 35
0.0
146
0.0
 13
0.0
 23
0.0
 33
0.0
 16
1.0
 26
0.0
 36
0.0
 17
0.0
 27
1.0
 37
0.0
 76
     0
330
48A7
331
48A9
  0
LAYOUT
  5
48B2
102
{ACAD_REACTORS
330
1A
102
}
330
1A
100
AcDbPlotSettings
  1

  2
\\PC-TOM\HP LaserJet 4L
  4
A4
  6

 40
6.805083274841307
 41
5.027085304260253
 42
6.805084228515625
 43
5.027069091796875
 44
209.9733276367186
 45
296.9259948730469
 46
0.0
 47
0.0
 48
0.0
 49
0.0
140
0.0
141
0.0
142
1.0
143
1.0
 70
   688
 72
     1
 73
     1
 74
     5
  7
monochrome.ctb
 75
    16
147
1.0
 76
     1
 77
     2
 78
   150
148
0.0
149
0.0
100
AcDbLayout
  1
Plan 6
 70
     1
 71
     7
 10
-5.027069091796875
 20
-6.805083274841307
 11
291.89892578125
 21
203.1682443618775
 12
0.0
 22
0.0
 32
0.0
 14
1.636086210675556
 24
1.22158466176927
 34
0.0
 15
286.1625683863782
 25
195.1415763366682
 35
0.0
146
0.0
 13
0.0
 23
0.0
 33
0.0
 16
1.0
 26
0.0
 36
0.0
 17
0.0
 27
1.0
 37
0.0
 76
     0
330
48AD
331
48AF
  0
LAYOUT
  5
48B8
102
{ACAD_REACTORS
330
1A
102
}
330
1A
100
AcDbPlotSettings
  1

  2
\\PC-TOM\HP LaserJet 4L
  4
A4
  6

 40
6.805083274841307
 41
5.027085304260253
 42
6.805084228515625
 43
5.027069091796875
 44
209.9733276367186
 45
296.9259948730469
 46
0.0
 47
0.0
 48
0.0
 49
0.0
140
0.0
141
0.0
142
1.0
143
1.0
 70
   688
 72
     1
 73
     1
 74
     5
  7
monochrome.ctb
 75
    16
147
1.0
 76
     1
 77
     2
 78
   150
148
0.0
149
0.0
100
AcDbLayout
  1
Plan 7
 70
     1
 71
     8
 10
-5.027069091796875
 20
-6.805083274841307
 11
291.89892578125
 21
203.1682443618775
 12
0.0
 22
0.0
 32
0.0
 14
1.636086210675556
 24
1.22158466176927
 34
0.0
 15
286.1625683863782
 25
195.1415763366682
 35
0.0
146
0.0
 13
0.0
 23
0.0
 33
0.0
 16
1.0
 26
0.0
 36
0.0
 17
0.0
 27
1.0
 37
0.0
 76
     0
330
48B3
331
48B5
  0
LAYOUT
  5
48BE
102
{ACAD_REACTORS
330
1A
102
}
330
1A
100
AcDbPlotSettings
  1

  2
\\PC-TOM\HP LaserJet 4L
  4
A4
  6

 40
6.805083274841307
 41
5.027085304260253
 42
6.805084228515625
 43
5.027069091796875
 44
209.9733276367186
 45
296.9259948730469
 46
0.0
 47
0.0
 48
0.0
 49
0.0
140
0.0
141
0.0
142
1.0
143
1.0
 70
   688
 72
     1
 73
     1
 74
     5
  7
monochrome.ctb
 75
    16
147
1.0
 76
     1
 77
     2
 78
   150
148
0.0
149
0.0
100
AcDbLayout
  1
Plan 8
 70
     1
 71
     9
 10
-5.027069091796875
 20
-6.805083274841307
 11
291.89892578125
 21
203.1682443618775
 12
0.0
 22
0.0
 32
0.0
 14
1.636086210675556
 24
1.22158466176927
 34
0.0
 15
286.1625683863782
 25
195.1415763366682
 35
0.0
146
0.0
 13
0.0
 23
0.0
 33
0.0
 16
1.0
 26
0.0
 36
0.0
 17
0.0
 27
1.0
 37
0.0
 76
     0
330
48B9
331
48BB
  0
LAYOUT
  5
48E4
102
{ACAD_REACTORS
330
1A
102
}
330
1A
100
AcDbPlotSettings
  1

  2
\\PC-TOM\HP LaserJet 4L
  4
A4
  6

 40
6.805083274841307
 41
5.027085304260253
 42
6.805084228515625
 43
5.027069091796875
 44
209.9733276367186
 45
296.9259948730469
 46
0.0
 47
0.0
 48
0.0
 49
0.0
140
0.0
141
0.0
142
1.0
143
1.0
 70
   688
 72
     1
 73
     1
 74
     5
  7
monochrome.ctb
 75
    16
147
1.0
 76
     1
 77
     2
 78
   150
148
0.0
149
0.0
100
AcDbLayout
  1
Plan 9
 70
     1
 71
    10
 10
-5.027069091796875
 20
-6.805083274841307
 11
291.89892578125
 21
203.1682443618775
 12
0.0
 22
0.0
 32
0.0
 14
1.636086210675556
 24
1.22158466176927
 34
0.0
 15
286.1625683863782
 25
195.1415763366682
 35
0.0
146
0.0
 13
0.0
 23
0.0
 33
0.0
 16
1.0
 26
0.0
 36
0.0
 17
0.0
 27
1.0
 37
0.0
 76
     0
330
48DF
331
48E1
  0
MLINESTYLE
  5
18
102
{ACAD_REACTORS
330
17
102
}
330
17
100
AcDbMlineStyle
  2
STANDARD
 70
     0
  3

 62
   256
 51
90.0
 52
90.0
 71
     2
 49
0.5
 62
   256
  6
BYLAYER
 49
-0.5
 62
   256
  6
BYLAYER
  0
ACDBPLACEHOLDER
  5
F
102
{ACAD_REACTORS
330
E
102
}
330
E
  0
DICTIONARYVAR
  5
5F
102
{ACAD_REACTORS
330
5E
102
}
330
5E
100
DictionaryVariables
280
     0
  1
2
  0
DICTIONARYVAR
  5
63
102
{ACAD_REACTORS
330
5E
102
}
330
5E
100
DictionaryVariables
280
     0
  1
1
  0
XRECORD
  5
2585
102
{ACAD_REACTORS
330
2583
102
}
330
2583
100
AcDbXrecord
280
     1
330
199A
  0
ENDSEC
  0
EOF
